  0
SECTION
  2
HEADER
  9
$ACADVER
  1
AC1021
  9
$ACADMAINTVER
 70
    25
  9
$DWGCODEPAGE
  3
ANSI_1251
  9
$INSBASE
 10
0.0
 20
0.0
 30
0.0
  9
$EXTMIN
 10
-27.74047
 20
6.04694
 30
0.0
  9
$EXTMAX
 10
-1.69284
 20
13.71658
 30
0.0
  9
$LIMMIN
 10
0.0
 20
0.0
  9
$LIMMAX
 10
12.0
 20
9.0
  9
$ORTHOMODE
 70
     0
  9
$REGENMODE
 70
     1
  9
$FILLMODE
 70
     1
  9
$QTEXTMODE
 70
     0
  9
$MIRRTEXT
 70
     1
  9
$LTSCALE
 40
1.0
  9
$ATTMODE
 70
     1
  9
$TEXTSIZE
 40
0.2
  9
$TRACEWID
 40
0.05
  9
$TEXTSTYLE
  7
Standard
  9
$CLAYER
  8
0
  9
$CELTYPE
  6
ByLayer
  9
$CECOLOR
 62
   256
  9
$CELTSCALE
 40
1.0
  9
$DISPSILH
 70
     0
  9
$DIMSCALE
 40
1.0
  9
$DIMASZ
 40
0.18
  9
$DIMEXO
 40
0.0625
  9
$DIMDLI
 40
0.38
  9
$DIMRND
 40
0.0
  9
$DIMDLE
 40
0.0
  9
$DIMEXE
 40
0.18
  9
$DIMTP
 40
0.0
  9
$DIMTM
 40
0.0
  9
$DIMTXT
 40
0.18
  9
$DIMCEN
 40
0.09
  9
$DIMTSZ
 40
0.0
  9
$DIMTOL
 70
     0
  9
$DIMLIM
 70
     0
  9
$DIMTIH
 70
     1
  9
$DIMTOH
 70
     1
  9
$DIMSE1
 70
     0
  9
$DIMSE2
 70
     0
  9
$DIMTAD
 70
     0
  9
$DIMZIN
 70
     0
  9
$DIMBLK
  1

  9
$DIMASO
 70
     1
  9
$DIMSHO
 70
     1
  9
$DIMPOST
  1

  9
$DIMAPOST
  1

  9
$DIMALT
 70
     0
  9
$DIMALTD
 70
     2
  9
$DIMALTF
 40
25.4
  9
$DIMLFAC
 40
1.0
  9
$DIMTOFL
 70
     0
  9
$DIMTVP
 40
0.0
  9
$DIMTIX
 70
     0
  9
$DIMSOXD
 70
     0
  9
$DIMSAH
 70
     0
  9
$DIMBLK1
  1

  9
$DIMBLK2
  1

  9
$DIMSTYLE
  2
Standard
  9
$DIMCLRD
 70
     0
  9
$DIMCLRE
 70
     0
  9
$DIMCLRT
 70
     0
  9
$DIMTFAC
 40
1.0
  9
$DIMGAP
 40
0.09
  9
$DIMJUST
 70
     0
  9
$DIMSD1
 70
     0
  9
$DIMSD2
 70
     0
  9
$DIMTOLJ
 70
     1
  9
$DIMTZIN
 70
     0
  9
$DIMALTZ
 70
     0
  9
$DIMALTTZ
 70
     0
  9
$DIMUPT
 70
     0
  9
$DIMDEC
 70
     4
  9
$DIMTDEC
 70
     4
  9
$DIMALTU
 70
     2
  9
$DIMALTTD
 70
     2
  9
$DIMTXSTY
  7
Standard
  9
$DIMAUNIT
 70
     0
  9
$DIMADEC
 70
     0
  9
$DIMALTRND
 40
0.0
  9
$DIMAZIN
 70
     0
  9
$DIMDSEP
 70
    46
  9
$DIMATFIT
 70
     3
  9
$DIMFRAC
 70
     0
  9
$DIMLDRBLK
  1

  9
$DIMLUNIT
 70
     2
  9
$DIMLWD
 70
    -2
  9
$DIMLWE
 70
    -2
  9
$DIMTMOVE
 70
     0
  9
$DIMFXL
 40
1.0
  9
$DIMFXLON
 70
     0
  9
$DIMJOGANG
 40
0.7853981633974483
  9
$DIMTFILL
 70
     0
  9
$DIMTFILLCLR
 70
     0
  9
$DIMARCSYM
 70
     0
  9
$DIMLTYPE
  6

  9
$DIMLTEX1
  6

  9
$DIMLTEX2
  6

  9
$LUNITS
 70
     2
  9
$LUPREC
 70
     4
  9
$SKETCHINC
 40
0.1
  9
$FILLETRAD
 40
0.5
  9
$AUNITS
 70
     0
  9
$AUPREC
 70
     0
  9
$MENU
  1
.
  9
$ELEVATION
 40
0.0
  9
$PELEVATION
 40
0.0
  9
$THICKNESS
 40
0.0
  9
$LIMCHECK
 70
     0
  9
$CHAMFERA
 40
0.0
  9
$CHAMFERB
 40
0.0
  9
$CHAMFERC
 40
0.0
  9
$CHAMFERD
 40
0.0
  9
$SKPOLY
 70
     0
  9
$TDCREATE
 40
2458214.915007106
  9
$TDUCREATE
 40
2458214.790007106
  9
$TDUPDATE
 40
2458214.915007569
  9
$TDUUPDATE
 40
2458214.790007569
  9
$TDINDWG
 40
0.0000000116
  9
$TDUSRTIMER
 40
0.0000000116
  9
$USRTIMER
 70
     1
  9
$ANGBASE
 50
0.0
  9
$ANGDIR
 70
     0
  9
$PDMODE
 70
     0
  9
$PDSIZE
 40
0.0
  9
$PLINEWID
 40
0.0
  9
$SPLFRAME
 70
     0
  9
$SPLINETYPE
 70
     6
  9
$SPLINESEGS
 70
     8
  9
$HANDSEED
  5
E7
  9
$SURFTAB1
 70
     6
  9
$SURFTAB2
 70
     6
  9
$SURFTYPE
 70
     6
  9
$SURFU
 70
     6
  9
$SURFV
 70
     6
  9
$UCSBASE
  2

  9
$UCSNAME
  2

  9
$UCSORG
 10
0.0
 20
0.0
 30
0.0
  9
$UCSXDIR
 10
1.0
 20
0.0
 30
0.0
  9
$UCSYDIR
 10
0.0
 20
1.0
 30
0.0
  9
$UCSORTHOREF
  2

  9
$UCSORTHOVIEW
 70
     0
  9
$UCSORGTOP
 10
0.0
 20
0.0
 30
0.0
  9
$UCSORGBOTTOM
 10
0.0
 20
0.0
 30
0.0
  9
$UCSORGLEFT
 10
0.0
 20
0.0
 30
0.0
  9
$UCSORGRIGHT
 10
0.0
 20
0.0
 30
0.0
  9
$UCSORGFRONT
 10
0.0
 20
0.0
 30
0.0
  9
$UCSORGBACK
 10
0.0
 20
0.0
 30
0.0
  9
$PUCSBASE
  2

  9
$PUCSNAME
  2

  9
$PUCSORG
 10
0.0
 20
0.0
 30
0.0
  9
$PUCSXDIR
 10
1.0
 20
0.0
 30
0.0
  9
$PUCSYDIR
 10
0.0
 20
1.0
 30
0.0
  9
$PUCSORTHOREF
  2

  9
$PUCSORTHOVIEW
 70
     0
  9
$PUCSORGTOP
 10
0.0
 20
0.0
 30
0.0
  9
$PUCSORGBOTTOM
 10
0.0
 20
0.0
 30
0.0
  9
$PUCSORGLEFT
 10
0.0
 20
0.0
 30
0.0
  9
$PUCSORGRIGHT
 10
0.0
 20
0.0
 30
0.0
  9
$PUCSORGFRONT
 10
0.0
 20
0.0
 30
0.0
  9
$PUCSORGBACK
 10
0.0
 20
0.0
 30
0.0
  9
$USERI1
 70
     0
  9
$USERI2
 70
     0
  9
$USERI3
 70
     0
  9
$USERI4
 70
     0
  9
$USERI5
 70
     0
  9
$USERR1
 40
0.0
  9
$USERR2
 40
0.0
  9
$USERR3
 40
0.0
  9
$USERR4
 40
0.0
  9
$USERR5
 40
0.0
  9
$WORLDVIEW
 70
     1
  9
$SHADEDGE
 70
     3
  9
$SHADEDIF
 70
    70
  9
$TILEMODE
 70
     1
  9
$MAXACTVP
 70
    64
  9
$PINSBASE
 10
0.0
 20
0.0
 30
0.0
  9
$PLIMCHECK
 70
     0
  9
$PEXTMIN
 10
1.000000000000000E+20
 20
1.000000000000000E+20
 30
1.000000000000000E+20
  9
$PEXTMAX
 10
-1.000000000000000E+20
 20
-1.000000000000000E+20
 30
-1.000000000000000E+20
  9
$PLIMMIN
 10
0.0
 20
0.0
  9
$PLIMMAX
 10
12.0
 20
9.0
  9
$UNITMODE
 70
     0
  9
$VISRETAIN
 70
     1
  9
$PLINEGEN
 70
     0
  9
$PSLTSCALE
 70
     1
  9
$TREEDEPTH
 70
  3020
  9
$CMLSTYLE
  2
Standard
  9
$CMLJUST
 70
     0
  9
$CMLSCALE
 40
1.0
  9
$PROXYGRAPHICS
 70
     1
  9
$MEASUREMENT
 70
     0
  9
$CELWEIGHT
370
    -1
  9
$ENDCAPS
280
     0
  9
$JOINSTYLE
280
     0
  9
$LWDISPLAY
290
     0
  9
$INSUNITS
 70
     5
  9
$HYPERLINKBASE
  1

  9
$STYLESHEET
  1

  9
$XEDIT
290
     1
  9
$CEPSNTYPE
380
     0
  9
$PSTYLEMODE
290
     1
  9
$FINGERPRINTGUID
  2
{53421A4F-4AA2-4F39-88F4-226609763986}
  9
$VERSIONGUID
  2
{FAEB1C32-E019-11D5-929B-00C0DF256EC4}
  9
$EXTNAMES
290
     1
  9
$PSVPSCALE
 40
0.0
  9
$OLESTARTUP
290
     0
  9
$SORTENTS
280
   127
  9
$INDEXCTL
280
     0
  9
$HIDETEXT
280
     1
  9
$XCLIPFRAME
290
     0
  9
$HALOGAP
280
     0
  9
$OBSCOLOR
 70
   257
  9
$OBSLTYPE
280
     0
  9
$INTERSECTIONDISPLAY
280
     0
  9
$INTERSECTIONCOLOR
 70
   257
  9
$DIMASSOC
280
     2
  9
$PROJECTNAME
  1

  9
$CAMERADISPLAY
290
     0
  9
$LENSLENGTH
 40
50.0
  9
$CAMERAHEIGHT
 40
0.0
  9
$STEPSPERSEC
 40
2.0
  9
$STEPSIZE
 40
6.0
  9
$3DDWFPREC
 40
2.0
  9
$PSOLWIDTH
 40
0.25
  9
$PSOLHEIGHT
 40
4.0
  9
$LOFTANG1
 40
1.570796326794897
  9
$LOFTANG2
 40
1.570796326794897
  9
$LOFTMAG1
 40
0.0
  9
$LOFTMAG2
 40
0.0
  9
$LOFTPARAM
 70
     7
  9
$LOFTNORMALS
280
     1
  9
$LATITUDE
 40
37.795
  9
$LONGITUDE
 40
-122.394
  9
$NORTHDIRECTION
 40
0.0
  9
$TIMEZONE
 70
 -8000
  9
$LIGHTGLYPHDISPLAY
280
     1
  9
$TILEMODELIGHTSYNCH
280
     1
  9
$CMATERIAL
347
44
  9
$SOLIDHIST
280
     0
  9
$SHOWHIST
280
     1
  9
$DWFFRAME
280
     2
  9
$DGNFRAME
280
     2
  9
$REALWORLDSCALE
290
     1
  9
$INTERFERECOLOR
 62
   256
  9
$CSHADOW
280
     0
  9
$SHADOWPLANELOCATION
 40
0.0
  0
ENDSEC
  0
SECTION
  2
CLASSES
  0
CLASS
  1
ACDBDICTIONARYWDFLT
  2
AcDbDictionaryWithDefault
  3
ObjectDBX Classes
 90
        0
 91
        4
280
     0
281
     0
  0
CLASS
  1
VISUALSTYLE
  2
AcDbVisualStyle
  3
ObjectDBX Classes
 90
     4095
 91
        4
280
     0
281
     0
  0
CLASS
  1
MATERIAL
  2
AcDbMaterial
  3
ObjectDBX Classes
 90
     1153
 91
        4
280
     0
281
     0
  0
CLASS
  1
SCALE
  2
AcDbScale
  3
ObjectDBX Classes
 90
     1153
 91
        4
280
     0
281
     0
  0
CLASS
  1
TABLESTYLE
  2
AcDbTableStyle
  3
ObjectDBX Classes
 90
     4095
 91
        4
280
     0
281
     0
  0
CLASS
  1
MLEADERSTYLE
  2
AcDbMLeaderStyle
  3
ACDB_MLEADERSTYLE_CLASS
 90
     4095
 91
        4
280
     0
281
     0
  0
CLASS
  1
SUN
  2
AcDbSun
  3
SCENEOE
 90
     1153
 91
        4
280
     0
281
     0
  0
CLASS
  1
DICTIONARYVAR
  2
AcDbDictionaryVar
  3
ObjectDBX Classes
 90
        0
 91
        4
280
     0
281
     0
  0
CLASS
  1
CELLSTYLEMAP
  2
AcDbCellStyleMap
  3
ObjectDBX Classes
 90
     1152
 91
        4
280
     0
281
     0
  0
ENDSEC
  0
SECTION
  2
TABLES
  0
TABLE
  2
VPORT
  5
8
330
0
100
AcDbSymbolTable
 70
     1
  0
VPORT
  5
29
330
8
100
AcDbSymbolTableRecord
100
AcDbViewportTableRecord
  2
*Active
 70
     0
 10
0.0
 20
0.0
 11
1.0
 21
1.0
 12
10.42990654205607
 22
4.5
 13
0.0
 23
0.0
 14
0.5
 24
0.5
 15
0.5
 25
0.5
 16
0.0
 26
0.0
 36
1.0
 17
0.0
 27
0.0
 37
0.0
 40
9.0
 41
1.972972972850329
 42
50.0
 43
0.0
 44
0.0
 50
0.0
 51
0.0
 71
     0
 72
   100
 73
     1
 74
     3
 75
     0
 76
     0
 77
     0
 78
     0
281
     0
 65
     1
110
0.0
120
0.0
130
0.0
111
1.0
121
0.0
131
0.0
112
0.0
122
1.0
132
0.0
 79
     0
146
0.0
348
2F
 60
     3
 61
     5
292
     1
282
     1
141
0.0
142
0.0
 63
   250
361
6D
  0
ENDTAB
  0
TABLE
  2
LTYPE
  5
5
330
0
100
AcDbSymbolTable
 70
     1
  0
LTYPE
  5
14
330
5
100
AcDbSymbolTableRecord
100
AcDbLinetypeTableRecord
  2
ByBlock
 70
     0
  3

 72
    65
 73
     0
 40
0.0
  0
LTYPE
  5
15
330
5
100
AcDbSymbolTableRecord
100
AcDbLinetypeTableRecord
  2
ByLayer
 70
     0
  3

 72
    65
 73
     0
 40
0.0
  0
LTYPE
  5
16
330
5
100
AcDbSymbolTableRecord
100
AcDbLinetypeTableRecord
  2
Continuous
 70
     0
  3
Solid line
 72
    65
 73
     0
 40
0.0
  0
ENDTAB
  0
TABLE
  2
LAYER
  5
2
330
0
100
AcDbSymbolTable
 70
     2
  0
LAYER
  5
10
330
2
100
AcDbSymbolTableRecord
100
AcDbLayerTableRecord
  2
0
 70
     0
 62
     7
  6
Continuous
370
    -3
390
F
347
46
  0
LAYER
  5
6F
330
2
100
AcDbSymbolTableRecord
100
AcDbLayerTableRecord
  2
layer 1
 70
     0
 62
     7
  6
Continuous
370
    -3
390
F
347
46
  0
ENDTAB
  0
TABLE
  2
STYLE
  5
3
330
0
100
AcDbSymbolTable
 70
     1
  0
STYLE
  5
11
330
3
100
AcDbSymbolTableRecord
100
AcDbTextStyleTableRecord
  2
Standard
 70
     0
 40
0.0
 41
1.0
 50
0.0
 71
     0
 42
0.2
  3
txt
  4

  0
ENDTAB
  0
TABLE
  2
VIEW
  5
6
330
0
100
AcDbSymbolTable
 70
     0
  0
ENDTAB
  0
TABLE
  2
UCS
  5
7
330
0
100
AcDbSymbolTable
 70
     0
  0
ENDTAB
  0
TABLE
  2
APPID
  5
9
330
0
100
AcDbSymbolTable
 70
     3
  0
APPID
  5
12
330
9
100
AcDbSymbolTableRecord
100
AcDbRegAppTableRecord
  2
ACAD
 70
     0
  0
APPID
  5
6E
330
9
100
AcDbSymbolTableRecord
100
AcDbRegAppTableRecord
  2
ODA
 70
     0
  0
APPID
  5
DF
330
9
100
AcDbSymbolTableRecord
100
AcDbRegAppTableRecord
  2
ACAD_MLEADERVER
 70
     0
  0
ENDTAB
  0
TABLE
  2
DIMSTYLE
  5
A
330
0
100
AcDbSymbolTable
 70
     1
100
AcDbDimStyleTable
  0
DIMSTYLE
105
27
330
A
100
AcDbSymbolTableRecord
100
AcDbDimStyleTableRecord
  2
Standard
 70
     0
178
     0
340
11
  0
ENDTAB
  0
TABLE
  2
BLOCK_RECORD
  5
1
330
0
100
AcDbSymbolTable
 70
     1
  0
BLOCK_RECORD
  5
1F
330
1
100
AcDbSymbolTableRecord
100
AcDbBlockTableRecord
  2
*Model_Space
340
22
 70
     0
280
     1
281
     0
  0
BLOCK_RECORD
  5
1B
330
1
100
AcDbSymbolTableRecord
100
AcDbBlockTableRecord
  2
*Paper_Space
340
1E
 70
     0
280
     1
281
     0
  0
BLOCK_RECORD
  5
23
330
1
100
AcDbSymbolTableRecord
100
AcDbBlockTableRecord
  2
*Paper_Space0
340
26
 70
     0
280
     1
281
     0
  0
ENDTAB
  0
ENDSEC
  0
SECTION
  2
BLOCKS
  0
BLOCK
  5
20
330
1F
100
AcDbEntity
  8
0
100
AcDbBlockBegin
  2
*Model_Space
 70
     0
 10
0.0
 20
0.0
 30
0.0
  3
*Model_Space
  1

  0
ENDBLK
  5
21
330
1F
100
AcDbEntity
  8
0
100
AcDbBlockEnd
  0
BLOCK
  5
1C
330
1B
100
AcDbEntity
 67
     1
  8
0
100
AcDbBlockBegin
  2
*Paper_Space
 70
     0
 10
0.0
 20
0.0
 30
0.0
  3
*Paper_Space
  1

  0
ENDBLK
  5
1D
330
1B
100
AcDbEntity
 67
     1
  8
0
100
AcDbBlockEnd
  0
BLOCK
  5
24
330
23
100
AcDbEntity
  8
0
100
AcDbBlockBegin
  2
*Paper_Space0
 70
     0
 10
0.0
 20
0.0
 30
0.0
  3
*Paper_Space0
  1

  0
ENDBLK
  5
25
330
23
100
AcDbEntity
  8
0
100
AcDbBlockEnd
  0
ENDSEC
  0
SECTION
  2
ENTITIES
  0
SPLINE
  5
70
330
1F
100
AcDbEntity
  8
layer 1
 62
     7
370
    25
100
AcDbSpline
210
0.0
220
0.0
230
1.0
 70
    11
 71
     3
 72
   340
 73
   336
 74
     0
 42
0.000000001
 43
0.0000000001
 40
0.0
 40
0.0
 40
0.0
 40
0.0
 40
0.0117647058823529
 40
0.0117647058823529
 40
0.0117647058823529
 40
0.0117647058823529
 40
0.0235294117647059
 40
0.0235294117647059
 40
0.0235294117647059
 40
0.0235294117647059
 40
0.0352941176470588
 40
0.0352941176470588
 40
0.0352941176470588
 40
0.0352941176470588
 40
0.0470588235294118
 40
0.0470588235294118
 40
0.0470588235294118
 40
0.0470588235294118
 40
0.0588235294117647
 40
0.0588235294117647
 40
0.0588235294117647
 40
0.0588235294117647
 40
0.0705882352941176
 40
0.0705882352941176
 40
0.0705882352941176
 40
0.0705882352941176
 40
0.0823529411764706
 40
0.0823529411764706
 40
0.0823529411764706
 40
0.0823529411764706
 40
0.0941176470588235
 40
0.0941176470588235
 40
0.0941176470588235
 40
0.0941176470588235
 40
0.1058823529411765
 40
0.1058823529411765
 40
0.1058823529411765
 40
0.1058823529411765
 40
0.1176470588235294
 40
0.1176470588235294
 40
0.1176470588235294
 40
0.1176470588235294
 40
0.1294117647058824
 40
0.1294117647058824
 40
0.1294117647058824
 40
0.1294117647058824
 40
0.1411764705882353
 40
0.1411764705882353
 40
0.1411764705882353
 40
0.1411764705882353
 40
0.1529411764705882
 40
0.1529411764705882
 40
0.1529411764705882
 40
0.1529411764705882
 40
0.1647058823529412
 40
0.1647058823529412
 40
0.1647058823529412
 40
0.1647058823529412
 40
0.1764705882352941
 40
0.1764705882352941
 40
0.1764705882352941
 40
0.1764705882352941
 40
0.1882352941176471
 40
0.1882352941176471
 40
0.1882352941176471
 40
0.1882352941176471
 40
0.2
 40
0.2
 40
0.2
 40
0.2
 40
0.2117647058823529
 40
0.2117647058823529
 40
0.2117647058823529
 40
0.2117647058823529
 40
0.2235294117647059
 40
0.2235294117647059
 40
0.2235294117647059
 40
0.2235294117647059
 40
0.2352941176470588
 40
0.2352941176470588
 40
0.2352941176470588
 40
0.2352941176470588
 40
0.2470588235294118
 40
0.2470588235294118
 40
0.2470588235294118
 40
0.2470588235294118
 40
0.2588235294117647
 40
0.2588235294117647
 40
0.2588235294117647
 40
0.2588235294117647
 40
0.2705882352941176
 40
0.2705882352941176
 40
0.2705882352941176
 40
0.2705882352941176
 40
0.2823529411764706
 40
0.2823529411764706
 40
0.2823529411764706
 40
0.2823529411764706
 40
0.2941176470588235
 40
0.2941176470588235
 40
0.2941176470588235
 40
0.2941176470588235
 40
0.3058823529411765
 40
0.3058823529411765
 40
0.3058823529411765
 40
0.3058823529411765
 40
0.3176470588235294
 40
0.3176470588235294
 40
0.3176470588235294
 40
0.3176470588235294
 40
0.3294117647058823
 40
0.3294117647058823
 40
0.3294117647058823
 40
0.3294117647058823
 40
0.3411764705882353
 40
0.3411764705882353
 40
0.3411764705882353
 40
0.3411764705882353
 40
0.3529411764705883
 40
0.3529411764705883
 40
0.3529411764705883
 40
0.3529411764705883
 40
0.3647058823529412
 40
0.3647058823529412
 40
0.3647058823529412
 40
0.3647058823529412
 40
0.3764705882352941
 40
0.3764705882352941
 40
0.3764705882352941
 40
0.3764705882352941
 40
0.3882352941176471
 40
0.3882352941176471
 40
0.3882352941176471
 40
0.3882352941176471
 40
0.4
 40
0.4
 40
0.4
 40
0.4
 40
0.4117647058823529
 40
0.4117647058823529
 40
0.4117647058823529
 40
0.4117647058823529
 40
0.4235294117647059
 40
0.4235294117647059
 40
0.4235294117647059
 40
0.4235294117647059
 40
0.4352941176470588
 40
0.4352941176470588
 40
0.4352941176470588
 40
0.4352941176470588
 40
0.4470588235294118
 40
0.4470588235294118
 40
0.4470588235294118
 40
0.4470588235294118
 40
0.4588235294117647
 40
0.4588235294117647
 40
0.4588235294117647
 40
0.4588235294117647
 40
0.4705882352941176
 40
0.4705882352941176
 40
0.4705882352941176
 40
0.4705882352941176
 40
0.4823529411764706
 40
0.4823529411764706
 40
0.4823529411764706
 40
0.4823529411764706
 40
0.4941176470588236
 40
0.4941176470588236
 40
0.4941176470588236
 40
0.4941176470588236
 40
0.5058823529411764
 40
0.5058823529411764
 40
0.5058823529411764
 40
0.5058823529411764
 40
0.5176470588235295
 40
0.5176470588235295
 40
0.5176470588235295
 40
0.5176470588235295
 40
0.5294117647058824
 40
0.5294117647058824
 40
0.5294117647058824
 40
0.5294117647058824
 40
0.5411764705882353
 40
0.5411764705882353
 40
0.5411764705882353
 40
0.5411764705882353
 40
0.5529411764705883
 40
0.5529411764705883
 40
0.5529411764705883
 40
0.5529411764705883
 40
0.5647058823529412
 40
0.5647058823529412
 40
0.5647058823529412
 40
0.5647058823529412
 40
0.5764705882352941
 40
0.5764705882352941
 40
0.5764705882352941
 40
0.5764705882352941
 40
0.5882352941176471
 40
0.5882352941176471
 40
0.5882352941176471
 40
0.5882352941176471
 40
0.6
 40
0.6
 40
0.6
 40
0.6
 40
0.611764705882353
 40
0.611764705882353
 40
0.611764705882353
 40
0.611764705882353
 40
0.6235294117647059
 40
0.6235294117647059
 40
0.6235294117647059
 40
0.6235294117647059
 40
0.6352941176470588
 40
0.6352941176470588
 40
0.6352941176470588
 40
0.6352941176470588
 40
0.6470588235294118
 40
0.6470588235294118
 40
0.6470588235294118
 40
0.6470588235294118
 40
0.6588235294117647
 40
0.6588235294117647
 40
0.6588235294117647
 40
0.6588235294117647
 40
0.6705882352941176
 40
0.6705882352941176
 40
0.6705882352941176
 40
0.6705882352941176
 40
0.6823529411764706
 40
0.6823529411764706
 40
0.6823529411764706
 40
0.6823529411764706
 40
0.6941176470588235
 40
0.6941176470588235
 40
0.6941176470588235
 40
0.6941176470588235
 40
0.7058823529411765
 40
0.7058823529411765
 40
0.7058823529411765
 40
0.7058823529411765
 40
0.7176470588235294
 40
0.7176470588235294
 40
0.7176470588235294
 40
0.7176470588235294
 40
0.7294117647058823
 40
0.7294117647058823
 40
0.7294117647058823
 40
0.7294117647058823
 40
0.7411764705882353
 40
0.7411764705882353
 40
0.7411764705882353
 40
0.7411764705882353
 40
0.7529411764705882
 40
0.7529411764705882
 40
0.7529411764705882
 40
0.7529411764705882
 40
0.7647058823529411
 40
0.7647058823529411
 40
0.7647058823529411
 40
0.7647058823529411
 40
0.7764705882352941
 40
0.7764705882352941
 40
0.7764705882352941
 40
0.7764705882352941
 40
0.788235294117647
 40
0.788235294117647
 40
0.788235294117647
 40
0.788235294117647
 40
0.8
 40
0.8
 40
0.8
 40
0.8
 40
0.8117647058823529
 40
0.8117647058823529
 40
0.8117647058823529
 40
0.8117647058823529
 40
0.8235294117647058
 40
0.8235294117647058
 40
0.8235294117647058
 40
0.8235294117647058
 40
0.8352941176470589
 40
0.8352941176470589
 40
0.8352941176470589
 40
0.8352941176470589
 40
0.8470588235294118
 40
0.8470588235294118
 40
0.8470588235294118
 40
0.8470588235294118
 40
0.8588235294117647
 40
0.8588235294117647
 40
0.8588235294117647
 40
0.8588235294117647
 40
0.8705882352941177
 40
0.8705882352941177
 40
0.8705882352941177
 40
0.8705882352941177
 40
0.8823529411764706
 40
0.8823529411764706
 40
0.8823529411764706
 40
0.8823529411764706
 40
0.8941176470588236
 40
0.8941176470588236
 40
0.8941176470588236
 40
0.8941176470588236
 40
0.9058823529411765
 40
0.9058823529411765
 40
0.9058823529411765
 40
0.9058823529411765
 40
0.9176470588235294
 40
0.9176470588235294
 40
0.9176470588235294
 40
0.9176470588235294
 40
0.9294117647058824
 40
0.9294117647058824
 40
0.9294117647058824
 40
0.9294117647058824
 40
0.9411764705882353
 40
0.9411764705882353
 40
0.9411764705882353
 40
0.9411764705882353
 40
0.9529411764705882
 40
0.9529411764705882
 40
0.9529411764705882
 40
0.9529411764705882
 40
0.9647058823529412
 40
0.9647058823529412
 40
0.9647058823529412
 40
0.9647058823529412
 40
0.9764705882352941
 40
0.9764705882352941
 40
0.9764705882352941
 40
0.9764705882352941
 40
1.0
 40
1.0
 40
1.0
 40
1.0
 10
-26.93101
 20
13.70335
 30
0.0
 10
-26.98166
 20
13.70335
 30
0.0
 10
-27.03103
 20
13.69823
 30
0.0
 10
-27.07901
 20
13.68929
 30
0.0
 10
-27.07901
 20
13.68929
 30
0.0
 10
-27.0879
 20
13.68764
 30
0.0
 10
-27.09668
 20
13.68544
 30
0.0
 10
-27.10547
 20
13.6835
 30
0.0
 10
-27.10547
 20
13.6835
 30
0.0
 10
-27.15116
 20
13.67337
 30
0.0
 10
-27.19544
 20
13.65971
 30
0.0
 10
-27.23776
 20
13.64216
 30
0.0
 10
-27.23776
 20
13.64216
 30
0.0
 10
-27.23881
 20
13.64172
 30
0.0
 10
-27.24001
 20
13.64178
 30
0.0
 10
-27.24107
 20
13.64133
 30
0.0
 10
-27.24107
 20
13.64133
 30
0.0
 10
-27.24123
 20
13.64126
 30
0.0
 10
-27.24177
 20
13.6415
 30
0.0
 10
-27.2419
 20
13.64133
 30
0.0
 10
-27.2419
 20
13.64133
 30
0.0
 10
-27.24202
 20
13.64116
 30
0.0
 10
-27.24174
 20
13.64057
 30
0.0
 10
-27.2419
 20
13.6405
 30
0.0
 10
-27.2419
 20
13.6405
 30
0.0
 10
-27.2444
 20
13.63944
 30
0.0
 10
-27.24683
 20
13.63823
 30
0.0
 10
-27.24934
 20
13.63719
 30
0.0
 10
-27.24934
 20
13.63719
 30
0.0
 10
-27.27505
 20
13.62604
 30
0.0
 10
-27.29872
 20
13.61119
 30
0.0
 10
-27.32293
 20
13.5975
 30
0.0
 10
-27.32293
 20
13.5975
 30
0.0
 10
-27.34732
 20
13.58353
 30
0.0
 10
-27.37208
 20
13.57008
 30
0.0
 10
-27.39486
 20
13.55368
 30
0.0
 10
-27.39486
 20
13.55368
 30
0.0
 10
-27.4282
 20
13.52983
 30
0.0
 10
-27.45992
 20
13.50456
 30
0.0
 10
-27.48912
 20
13.47596
 30
0.0
 10
-27.48912
 20
13.47596
 30
0.0
 10
-27.49105
 20
13.47403
 30
0.0
 10
-27.49297
 20
13.47211
 30
0.0
 10
-27.49491
 20
13.47017
 30
0.0
 10
-27.49491
 20
13.47017
 30
0.0
 10
-27.49754
 20
13.46754
 30
0.0
 10
-27.49976
 20
13.46456
 30
0.0
 10
-27.50235
 20
13.4619
 30
0.0
 10
-27.50235
 20
13.4619
 30
0.0
 10
-27.53063
 20
13.43282
 30
0.0
 10
-27.55649
 20
13.40079
 30
0.0
 10
-27.58007
 20
13.36764
 30
0.0
 10
-27.58007
 20
13.36764
 30
0.0
 10
-27.59009
 20
13.35349
 30
0.0
 10
-27.5991
 20
13.33862
 30
0.0
 10
-27.60818
 20
13.32382
 30
0.0
 10
-27.60818
 20
13.32382
 30
0.0
 10
-27.6279
 20
13.29183
 30
0.0
 10
-27.64599
 20
13.25942
 30
0.0
 10
-27.6611
 20
13.2246
 30
0.0
 10
-27.6611
 20
13.2246
 30
0.0
 10
-27.66224
 20
13.22199
 30
0.0
 10
-27.66412
 20
13.21979
 30
0.0
 10
-27.66523
 20
13.21716
 30
0.0
 10
-27.66523
 20
13.21716
 30
0.0
 10
-27.66567
 20
13.21611
 30
0.0
 10
-27.66562
 20
13.2149
 30
0.0
 10
-27.66606
 20
13.21385
 30
0.0
 10
-27.66606
 20
13.21385
 30
0.0
 10
-27.68484
 20
13.16868
 30
0.0
 10
-27.69961
 20
13.12145
 30
0.0
 10
-27.70988
 20
13.07246
 30
0.0
 10
-27.70988
 20
13.07246
 30
0.0
 10
-27.71024
 20
13.07075
 30
0.0
 10
-27.71119
 20
13.06921
 30
0.0
 10
-27.71153
 20
13.0675
 30
0.0
 10
-27.71153
 20
13.0675
 30
0.0
 10
-27.71164
 20
13.06697
 30
0.0
 10
-27.71142
 20
13.06638
 30
0.0
 10
-27.71153
 20
13.06585
 30
0.0
 10
-27.71153
 20
13.06585
 30
0.0
 10
-27.72094
 20
13.01891
 30
0.0
 10
-27.72559
 20
12.96993
 30
0.0
 10
-27.72641
 20
12.92033
 30
0.0
 10
-27.72641
 20
12.92033
 30
0.0
 10
-27.72645
 20
12.91587
 30
0.0
 10
-27.72724
 20
12.91161
 30
0.0
 10
-27.72724
 20
12.9071
 30
0.0
 10
-27.72724
 20
12.9071
 30
0.0
 10
-27.72724
 20
12.9071
 30
0.0
 10
-27.72724
 20
10.5581
 30
0.0
 10
-27.72724
 20
10.5581
 30
0.0
 10
-27.72724
 20
10.5581
 30
0.0
 10
-27.72724
 20
10.5581
 30
0.0
 10
-27.44777
 20
10.5581
 30
0.0
 10
-27.44777
 20
10.5581
 30
0.0
 10
-27.44777
 20
10.5581
 30
0.0
 10
-27.44777
 20
10.5581
 30
0.0
 10
-27.44777
 20
9.20624
 30
0.0
 10
-27.44777
 20
9.20624
 30
0.0
 10
-27.44777
 20
9.20624
 30
0.0
 10
-27.44777
 20
9.20624
 30
0.0
 10
-27.72724
 20
9.20624
 30
0.0
 10
-27.72724
 20
9.20624
 30
0.0
 10
-27.72724
 20
9.20624
 30
0.0
 10
-27.72724
 20
9.20624
 30
0.0
 10
-27.72724
 20
6.85641
 30
0.0
 10
-27.72724
 20
6.85641
 30
0.0
 10
-27.72724
 20
6.85641
 30
0.0
 10
-27.72724
 20
6.85218
 30
0.0
 10
-27.72645
 20
6.84819
 30
0.0
 10
-27.72641
 20
6.84401
 30
0.0
 10
-27.72641
 20
6.84401
 30
0.0
 10
-27.72557
 20
6.79357
 30
0.0
 10
-27.72124
 20
6.74371
 30
0.0
 10
-27.71153
 20
6.69601
 30
0.0
 10
-27.71153
 20
6.69601
 30
0.0
 10
-27.71148
 20
6.69575
 30
0.0
 10
-27.71158
 20
6.69544
 30
0.0
 10
-27.71153
 20
6.69518
 30
0.0
 10
-27.71153
 20
6.69518
 30
0.0
 10
-27.70095
 20
6.64348
 30
0.0
 10
-27.68524
 20
6.59382
 30
0.0
 10
-27.66523
 20
6.54635
 30
0.0
 10
-27.66523
 20
6.54635
 30
0.0
 10
-27.65517
 20
6.5225
 30
0.0
 10
-27.64109
 20
6.50114
 30
0.0
 10
-27.62885
 20
6.47855
 30
0.0
 10
-27.62885
 20
6.47855
 30
0.0
 10
-27.60892
 20
6.44186
 30
0.0
 10
-27.58713
 20
6.40644
 30
0.0
 10
-27.56188
 20
6.37354
 30
0.0
 10
-27.56188
 20
6.37354
 30
0.0
 10
-27.54457
 20
6.35096
 30
0.0
 10
-27.5269
 20
6.32879
 30
0.0
 10
-27.50731
 20
6.30822
 30
0.0
 10
-27.50731
 20
6.30822
 30
0.0
 10
-27.50079
 20
6.30122
 30
0.0
 10
-27.49425
 20
6.29428
 30
0.0
 10
-27.48747
 20
6.28755
 30
0.0
 10
-27.48747
 20
6.28755
 30
0.0
 10
-27.45328
 20
6.25416
 30
0.0
 10
-27.41728
 20
6.2226
 30
0.0
 10
-27.3775
 20
6.19577
 30
0.0
 10
-27.3775
 20
6.19577
 30
0.0
 10
-27.37731
 20
6.19564
 30
0.0
 10
-27.37686
 20
6.1959
 30
0.0
 10
-27.37667
 20
6.19577
 30
0.0
 10
-27.37667
 20
6.19577
 30
0.0
 10
-27.37553
 20
6.195
 30
0.0
 10
-27.3745
 20
6.19406
 30
0.0
 10
-27.37336
 20
6.19329
 30
0.0
 10
-27.37336
 20
6.19329
 30
0.0
 10
-27.33212
 20
6.16583
 30
0.0
 10
-27.28811
 20
6.1425
 30
0.0
 10
-27.2419
 20
6.12301
 30
0.0
 10
-27.2419
 20
6.12301
 30
0.0
 10
-27.19419
 20
6.10289
 30
0.0
 10
-27.14422
 20
6.08729
 30
0.0
 10
-27.09225
 20
6.07671
 30
0.0
 10
-27.09225
 20
6.07671
 30
0.0
 10
-27.04027
 20
6.06613
 30
0.0
 10
-26.98621
 20
6.06017
 30
0.0
 10
-26.93102
 20
6.06017
 30
0.0
 10
-26.93102
 20
6.06017
 30
0.0
 10
-26.93102
 20
6.06017
 30
0.0
 10
-20.88116
 20
6.06017
 30
0.0
 10
-20.88116
 20
6.06017
 30
0.0
 10
-20.88116
 20
6.06017
 30
0.0
 10
-20.83306
 20
6.06017
 30
0.0
 10
-20.78631
 20
6.06613
 30
0.0
 10
-20.7406
 20
6.07423
 30
0.0
 10
-20.7406
 20
6.07423
 30
0.0
 10
-20.69101
 20
6.08298
 30
0.0
 10
-20.6435
 20
6.09736
 30
0.0
 10
-20.59756
 20
6.11474
 30
0.0
 10
-20.59756
 20
6.11474
 30
0.0
 10
-20.58872
 20
6.1181
 30
0.0
 10
-20.57896
 20
6.11935
 30
0.0
 10
-20.57027
 20
6.12301
 30
0.0
 10
-20.57027
 20
6.12301
 30
0.0
 10
-20.53471
 20
6.138
 30
0.0
 10
-20.50207
 20
6.15781
 30
0.0
 10
-20.4694
 20
6.17758
 30
0.0
 10
-20.4694
 20
6.17758
 30
0.0
 10
-20.44783
 20
6.19054
 30
0.0
 10
-20.42673
 20
6.20405
 30
0.0
 10
-20.40656
 20
6.21892
 30
0.0
 10
-20.40656
 20
6.21892
 30
0.0
 10
-20.38639
 20
6.23392
 30
0.0
 10
-20.36731
 20
6.25007
 30
0.0
 10
-20.34868
 20
6.26688
 30
0.0
 10
-20.34868
 20
6.26688
 30
0.0
 10
-20.32103
 20
6.29191
 30
0.0
 10
-20.29567
 20
6.3192
 30
0.0
 10
-20.27179
 20
6.34791
 30
0.0
 10
-20.27179
 20
6.34791
 30
0.0
 10
-20.25909
 20
6.3631
 30
0.0
 10
-20.24531
 20
6.37726
 30
0.0
 10
-20.23376
 20
6.39339
 30
0.0
 10
-20.23376
 20
6.39339
 30
0.0
 10
-20.19984
 20
6.44101
 30
0.0
 10
-20.16991
 20
6.49177
 30
0.0
 10
-20.14694
 20
6.54635
 30
0.0
 10
-20.14694
 20
6.54635
 30
0.0
 10
-20.12696
 20
6.59382
 30
0.0
 10
-20.1112
 20
6.64348
 30
0.0
 10
-20.10064
 20
6.69518
 30
0.0
 10
-20.10064
 20
6.69518
 30
0.0
 10
-20.10059
 20
6.69544
 30
0.0
 10
-20.10069
 20
6.69574
 30
0.0
 10
-20.10064
 20
6.69601
 30
0.0
 10
-20.10064
 20
6.69601
 30
0.0
 10
-20.09011
 20
6.74772
 30
0.0
 10
-20.08416
 20
6.80152
 30
0.0
 10
-20.0841
 20
6.85641
 30
0.0
 10
-20.0841
 20
6.85641
 30
0.0
 10
-20.0841
 20
6.85641
 30
0.0
 10
-20.0841
 20
9.20541
 30
0.0
 10
-20.0841
 20
9.20541
 30
0.0
 10
-20.0841
 20
9.20541
 30
0.0
 10
-20.0841
 20
9.20541
 30
0.0
 10
-20.36439
 20
9.20541
 30
0.0
 10
-20.36439
 20
9.20541
 30
0.0
 10
-20.36439
 20
9.20541
 30
0.0
 10
-20.36439
 20
9.20541
 30
0.0
 10
-20.36439
 20
10.55727
 30
0.0
 10
-20.36439
 20
10.55727
 30
0.0
 10
-20.36439
 20
10.55727
 30
0.0
 10
-20.36439
 20
10.55727
 30
0.0
 10
-20.0841
 20
10.55727
 30
0.0
 10
-20.0841
 20
10.55727
 30
0.0
 10
-20.0841
 20
10.55727
 30
0.0
 10
-20.0841
 20
10.55727
 30
0.0
 10
-20.0841
 20
12.90627
 30
0.0
 10
-20.0841
 20
12.90627
 30
0.0
 10
-20.0841
 20
12.90627
 30
0.0
 10
-20.0841
 20
12.90682
 30
0.0
 10
-20.0841
 20
12.90737
 30
0.0
 10
-20.0841
 20
12.90792
 30
0.0
 10
-20.0841
 20
12.90792
 30
0.0
 10
-20.08416
 20
12.96198
 30
0.0
 10
-20.09042
 20
13.01489
 30
0.0
 10
-20.10064
 20
13.06584
 30
0.0
 10
-20.10064
 20
13.06584
 30
0.0
 10
-20.10075
 20
13.06637
 30
0.0
 10
-20.10053
 20
13.06697
 30
0.0
 10
-20.10064
 20
13.06749
 30
0.0
 10
-20.10064
 20
13.06749
 30
0.0
 10
-20.10099
 20
13.0692
 30
0.0
 10
-20.10193
 20
13.07074
 30
0.0
 10
-20.10229
 20
13.07245
 30
0.0
 10
-20.10229
 20
13.07245
 30
0.0
 10
-20.11243
 20
13.12084
 30
0.0
 10
-20.12684
 20
13.16752
 30
0.0
 10
-20.14528
 20
13.21218
 30
0.0
 10
-20.14528
 20
13.21218
 30
0.0
 10
-20.14595
 20
13.21379
 30
0.0
 10
-20.14626
 20
13.21553
 30
0.0
 10
-20.14693
 20
13.21714
 30
0.0
 10
-20.14693
 20
13.21714
 30
0.0
 10
-20.1479
 20
13.21943
 30
0.0
 10
-20.14926
 20
13.22148
 30
0.0
 10
-20.15024
 20
13.22375
 30
0.0
 10
-20.15024
 20
13.22375
 30
0.0
 10
-20.16619
 20
13.26066
 30
0.0
 10
-20.18535
 20
13.29503
 30
0.0
 10
-20.20646
 20
13.32876
 30
0.0
 10
-20.20646
 20
13.32876
 30
0.0
 10
-20.21458
 20
13.34154
 30
0.0
 10
-20.22247
 20
13.35449
 30
0.0
 10
-20.23126
 20
13.36679
 30
0.0
 10
-20.23126
 20
13.36679
 30
0.0
 10
-20.25365
 20
13.39836
 30
0.0
 10
-20.27901
 20
13.42818
 30
0.0
 10
-20.30567
 20
13.45609
 30
0.0
 10
-20.30567
 20
13.45609
 30
0.0
 10
-20.30988
 20
13.46046
 30
0.0
 10
-20.31297
 20
13.46587
 30
0.0
 10
-20.31725
 20
13.47015
 30
0.0
 10
-20.31725
 20
13.47015
 30
0.0
 10
-20.32235
 20
13.47525
 30
0.0
 10
-20.32856
 20
13.47921
 30
0.0
 10
-20.33379
 20
13.48421
 30
0.0
 10
-20.33379
 20
13.48421
 30
0.0
 10
-20.36091
 20
13.50988
 30
0.0
 10
-20.38924
 20
13.53364
 30
0.0
 10
-20.41978
 20
13.55532
 30
0.0
 10
-20.41978
 20
13.55532
 30
0.0
 10
-20.4334
 20
13.56502
 30
0.0
 10
-20.44772
 20
13.57376
 30
0.0
 10
-20.46195
 20
13.58261
 30
0.0
 10
-20.46195
 20
13.58261
 30
0.0
 10
-20.48795
 20
13.59869
 30
0.0
 10
-20.51508
 20
13.61337
 30
0.0
 10
-20.54298
 20
13.62643
 30
0.0
 10
-20.54298
 20
13.62643
 30
0.0
 10
-20.55747
 20
13.63328
 30
0.0
 10
-20.57184
 20
13.6403
 30
0.0
 10
-20.5868
 20
13.64627
 30
0.0
 10
-20.5868
 20
13.64627
 30
0.0
 10
-20.62569
 20
13.66166
 30
0.0
 10
-20.66586
 20
13.67429
 30
0.0
 10
-20.70752
 20
13.68348
 30
0.0
 10
-20.70752
 20
13.68348
 30
0.0
 10
-20.71572
 20
13.6853
 30
0.0
 10
-20.72403
 20
13.68688
 30
0.0
 10
-20.73232
 20
13.68844
 30
0.0
 10
-20.73232
 20
13.68844
 30
0.0
 10
-20.78057
 20
13.69748
 30
0.0
 10
-20.83019
 20
13.70332
 30
0.0
 10
-20.88115
 20
13.70332
 30
0.0
 10
-20.88115
 20
13.70332
 30
0.0
 10
-20.88115
 20
13.70332
 30
0.0
 10
-23.22933
 20
13.70332
 30
0.0
 10
-23.22933
 20
13.70332
 30
0.0
 10
-23.22933
 20
13.70332
 30
0.0
 10
-23.22933
 20
13.70332
 30
0.0
 10
-23.22933
 20
13.42303
 30
0.0
 10
-23.22933
 20
13.42303
 30
0.0
 10
-23.22933
 20
13.42303
 30
0.0
 10
-23.22933
 20
13.42303
 30
0.0
 10
-24.58201
 20
13.42303
 30
0.0
 10
-24.58201
 20
13.42303
 30
0.0
 10
-24.58201
 20
13.42303
 30
0.0
 10
-24.58201
 20
13.42303
 30
0.0
 10
-24.58201
 20
13.70332
 30
0.0
 10
-24.58201
 20
13.70332
 30
0.0
 10
-24.58201
 20
13.70332
 30
0.0
 10
-24.58201
 20
13.70332
 30
0.0
 10
-26.93101
 20
13.70332
 30
0.0
 10
-26.93101
 20
13.70332
 30
0.0
 10
-26.93101
 20
13.70332
 30
0.0
 10
-26.93101
 20
13.70332
 30
0.0
 10
-26.93101
 20
13.70335
 30
0.0
 10
-26.93101
 20
13.70335
 30
0.0
  0
SPLINE
  5
71
330
1F
100
AcDbEntity
  8
layer 1
 62
     7
370
    25
100
AcDbSpline
210
0.0
220
0.0
230
1.0
 70
    11
 71
     3
 72
    20
 73
    16
 74
     0
 42
0.000000001
 43
0.0000000001
 40
0.0
 40
0.0
 40
0.0
 40
0.0
 40
0.2
 40
0.2
 40
0.2
 40
0.2
 40
0.4
 40
0.4
 40
0.4
 40
0.4
 40
0.6
 40
0.6
 40
0.6
 40
0.6
 40
1.0
 40
1.0
 40
1.0
 40
1.0
 10
-26.16972
 20
12.6849
 30
0.0
 10
-26.16972
 20
12.38718
 30
0.0
 10
-26.41107
 20
12.14584
 30
0.0
 10
-26.70878
 20
12.14584
 30
0.0
 10
-26.70878
 20
12.14584
 30
0.0
 10
-27.0065
 20
12.14584
 30
0.0
 10
-27.24784
 20
12.38719
 30
0.0
 10
-27.24784
 20
12.6849
 30
0.0
 10
-27.24784
 20
12.6849
 30
0.0
 10
-27.24784
 20
12.98262
 30
0.0
 10
-27.00649
 20
13.22396
 30
0.0
 10
-26.70878
 20
13.22396
 30
0.0
 10
-26.70878
 20
13.22396
 30
0.0
 10
-26.41106
 20
13.22396
 30
0.0
 10
-26.16972
 20
12.98261
 30
0.0
 10
-26.16972
 20
12.6849
 30
0.0
  0
SPLINE
  5
72
330
1F
100
AcDbEntity
  8
layer 1
 62
     7
370
    25
100
AcDbSpline
210
0.0
220
0.0
230
1.0
 70
    11
 71
     3
 72
    20
 73
    16
 74
     0
 42
0.000000001
 43
0.0000000001
 40
0.0
 40
0.0
 40
0.0
 40
0.0
 40
0.2
 40
0.2
 40
0.2
 40
0.2
 40
0.4
 40
0.4
 40
0.4
 40
0.4
 40
0.6
 40
0.6
 40
0.6
 40
0.6
 40
1.0
 40
1.0
 40
1.0
 40
1.0
 10
-26.16972
 20
12.6849
 30
0.0
 10
-26.16972
 20
12.38718
 30
0.0
 10
-26.41107
 20
12.14584
 30
0.0
 10
-26.70878
 20
12.14584
 30
0.0
 10
-26.70878
 20
12.14584
 30
0.0
 10
-27.0065
 20
12.14584
 30
0.0
 10
-27.24784
 20
12.38719
 30
0.0
 10
-27.24784
 20
12.6849
 30
0.0
 10
-27.24784
 20
12.6849
 30
0.0
 10
-27.24784
 20
12.98262
 30
0.0
 10
-27.00649
 20
13.22396
 30
0.0
 10
-26.70878
 20
13.22396
 30
0.0
 10
-26.70878
 20
13.22396
 30
0.0
 10
-26.41106
 20
13.22396
 30
0.0
 10
-26.16972
 20
12.98261
 30
0.0
 10
-26.16972
 20
12.6849
 30
0.0
  0
SPLINE
  5
73
330
1F
100
AcDbEntity
  8
layer 1
 62
     7
370
    25
100
AcDbSpline
210
0.0
220
0.0
230
1.0
 70
    11
 71
     3
 72
    20
 73
    16
 74
     0
 42
0.000000001
 43
0.0000000001
 40
0.0
 40
0.0
 40
0.0
 40
0.0
 40
0.2
 40
0.2
 40
0.2
 40
0.2
 40
0.4
 40
0.4
 40
0.4
 40
0.4
 40
0.6
 40
0.6
 40
0.6
 40
0.6
 40
1.0
 40
1.0
 40
1.0
 40
1.0
 10
-26.16972
 20
11.28334
 30
0.0
 10
-26.16972
 20
10.98562
 30
0.0
 10
-26.41107
 20
10.74428
 30
0.0
 10
-26.70878
 20
10.74428
 30
0.0
 10
-26.70878
 20
10.74428
 30
0.0
 10
-27.0065
 20
10.74428
 30
0.0
 10
-27.24784
 20
10.98563
 30
0.0
 10
-27.24784
 20
11.28334
 30
0.0
 10
-27.24784
 20
11.28334
 30
0.0
 10
-27.24784
 20
11.58106
 30
0.0
 10
-27.00649
 20
11.8224
 30
0.0
 10
-26.70878
 20
11.8224
 30
0.0
 10
-26.70878
 20
11.8224
 30
0.0
 10
-26.41106
 20
11.8224
 30
0.0
 10
-26.16972
 20
11.58105
 30
0.0
 10
-26.16972
 20
11.28334
 30
0.0
  0
SPLINE
  5
74
330
1F
100
AcDbEntity
  8
layer 1
 62
     7
370
    25
100
AcDbSpline
210
0.0
220
0.0
230
1.0
 70
    11
 71
     3
 72
    20
 73
    16
 74
     0
 42
0.000000001
 43
0.0000000001
 40
0.0
 40
0.0
 40
0.0
 40
0.0
 40
0.2
 40
0.2
 40
0.2
 40
0.2
 40
0.4
 40
0.4
 40
0.4
 40
0.4
 40
0.6
 40
0.6
 40
0.6
 40
0.6
 40
1.0
 40
1.0
 40
1.0
 40
1.0
 10
-26.16972
 20
9.88177
 30
0.0
 10
-26.16972
 20
9.58405
 30
0.0
 10
-26.41107
 20
9.34271
 30
0.0
 10
-26.70878
 20
9.34271
 30
0.0
 10
-26.70878
 20
9.34271
 30
0.0
 10
-27.0065
 20
9.34271
 30
0.0
 10
-27.24784
 20
9.58406
 30
0.0
 10
-27.24784
 20
9.88177
 30
0.0
 10
-27.24784
 20
9.88177
 30
0.0
 10
-27.24784
 20
10.17949
 30
0.0
 10
-27.00649
 20
10.42083
 30
0.0
 10
-26.70878
 20
10.42083
 30
0.0
 10
-26.70878
 20
10.42083
 30
0.0
 10
-26.41106
 20
10.42083
 30
0.0
 10
-26.16972
 20
10.17948
 30
0.0
 10
-26.16972
 20
9.88177
 30
0.0
  0
SPLINE
  5
75
330
1F
100
AcDbEntity
  8
layer 1
 62
     7
370
    25
100
AcDbSpline
210
0.0
220
0.0
230
1.0
 70
    11
 71
     3
 72
    20
 73
    16
 74
     0
 42
0.000000001
 43
0.0000000001
 40
0.0
 40
0.0
 40
0.0
 40
0.0
 40
0.2
 40
0.2
 40
0.2
 40
0.2
 40
0.4
 40
0.4
 40
0.4
 40
0.4
 40
0.6
 40
0.6
 40
0.6
 40
0.6
 40
1.0
 40
1.0
 40
1.0
 40
1.0
 10
-26.16972
 20
8.48021
 30
0.0
 10
-26.16972
 20
8.18249
 30
0.0
 10
-26.41107
 20
7.94115
 30
0.0
 10
-26.70878
 20
7.94115
 30
0.0
 10
-26.70878
 20
7.94115
 30
0.0
 10
-27.0065
 20
7.94115
 30
0.0
 10
-27.24784
 20
8.1825
 30
0.0
 10
-27.24784
 20
8.48021
 30
0.0
 10
-27.24784
 20
8.48021
 30
0.0
 10
-27.24784
 20
8.77793
 30
0.0
 10
-27.00649
 20
9.01927
 30
0.0
 10
-26.70878
 20
9.01927
 30
0.0
 10
-26.70878
 20
9.01927
 30
0.0
 10
-26.41106
 20
9.01927
 30
0.0
 10
-26.16972
 20
8.77792
 30
0.0
 10
-26.16972
 20
8.48021
 30
0.0
  0
SPLINE
  5
76
330
1F
100
AcDbEntity
  8
layer 1
 62
     7
370
    25
100
AcDbSpline
210
0.0
220
0.0
230
1.0
 70
    11
 71
     3
 72
    20
 73
    16
 74
     0
 42
0.000000001
 43
0.0000000001
 40
0.0
 40
0.0
 40
0.0
 40
0.0
 40
0.2
 40
0.2
 40
0.2
 40
0.2
 40
0.4
 40
0.4
 40
0.4
 40
0.4
 40
0.6
 40
0.6
 40
0.6
 40
0.6
 40
1.0
 40
1.0
 40
1.0
 40
1.0
 10
-26.16972
 20
7.07865
 30
0.0
 10
-26.16972
 20
6.78093
 30
0.0
 10
-26.41107
 20
6.53959
 30
0.0
 10
-26.70878
 20
6.53959
 30
0.0
 10
-26.70878
 20
6.53959
 30
0.0
 10
-27.0065
 20
6.53959
 30
0.0
 10
-27.24784
 20
6.78094
 30
0.0
 10
-27.24784
 20
7.07865
 30
0.0
 10
-27.24784
 20
7.07865
 30
0.0
 10
-27.24784
 20
7.37637
 30
0.0
 10
-27.00649
 20
7.61771
 30
0.0
 10
-26.70878
 20
7.61771
 30
0.0
 10
-26.70878
 20
7.61771
 30
0.0
 10
-26.41106
 20
7.61771
 30
0.0
 10
-26.16972
 20
7.37636
 30
0.0
 10
-26.16972
 20
7.07865
 30
0.0
  0
SPLINE
  5
77
330
1F
100
AcDbEntity
  8
layer 1
 62
     7
370
    25
100
AcDbSpline
210
0.0
220
0.0
230
1.0
 70
    11
 71
     3
 72
    20
 73
    16
 74
     0
 42
0.000000001
 43
0.0000000001
 40
0.0
 40
0.0
 40
0.0
 40
0.0
 40
0.2
 40
0.2
 40
0.2
 40
0.2
 40
0.4
 40
0.4
 40
0.4
 40
0.4
 40
0.6
 40
0.6
 40
0.6
 40
0.6
 40
1.0
 40
1.0
 40
1.0
 40
1.0
 10
-24.76816
 20
12.6849
 30
0.0
 10
-24.76816
 20
12.38718
 30
0.0
 10
-25.00951
 20
12.14584
 30
0.0
 10
-25.30722
 20
12.14584
 30
0.0
 10
-25.30722
 20
12.14584
 30
0.0
 10
-25.60494
 20
12.14584
 30
0.0
 10
-25.84628
 20
12.38719
 30
0.0
 10
-25.84628
 20
12.6849
 30
0.0
 10
-25.84628
 20
12.6849
 30
0.0
 10
-25.84628
 20
12.98262
 30
0.0
 10
-25.60493
 20
13.22396
 30
0.0
 10
-25.30722
 20
13.22396
 30
0.0
 10
-25.30722
 20
13.22396
 30
0.0
 10
-25.0095
 20
13.22396
 30
0.0
 10
-24.76816
 20
12.98261
 30
0.0
 10
-24.76816
 20
12.6849
 30
0.0
  0
SPLINE
  5
78
330
1F
100
AcDbEntity
  8
layer 1
 62
     7
370
    25
100
AcDbSpline
210
0.0
220
0.0
230
1.0
 70
    11
 71
     3
 72
    20
 73
    16
 74
     0
 42
0.000000001
 43
0.0000000001
 40
0.0
 40
0.0
 40
0.0
 40
0.0
 40
0.2
 40
0.2
 40
0.2
 40
0.2
 40
0.4
 40
0.4
 40
0.4
 40
0.4
 40
0.6
 40
0.6
 40
0.6
 40
0.6
 40
1.0
 40
1.0
 40
1.0
 40
1.0
 10
-24.76816
 20
11.28334
 30
0.0
 10
-24.76816
 20
10.98562
 30
0.0
 10
-25.00951
 20
10.74428
 30
0.0
 10
-25.30722
 20
10.74428
 30
0.0
 10
-25.30722
 20
10.74428
 30
0.0
 10
-25.60494
 20
10.74428
 30
0.0
 10
-25.84628
 20
10.98563
 30
0.0
 10
-25.84628
 20
11.28334
 30
0.0
 10
-25.84628
 20
11.28334
 30
0.0
 10
-25.84628
 20
11.58106
 30
0.0
 10
-25.60493
 20
11.8224
 30
0.0
 10
-25.30722
 20
11.8224
 30
0.0
 10
-25.30722
 20
11.8224
 30
0.0
 10
-25.0095
 20
11.8224
 30
0.0
 10
-24.76816
 20
11.58105
 30
0.0
 10
-24.76816
 20
11.28334
 30
0.0
  0
SPLINE
  5
79
330
1F
100
AcDbEntity
  8
layer 1
 62
     7
370
    25
100
AcDbSpline
210
0.0
220
0.0
230
1.0
 70
    11
 71
     3
 72
    20
 73
    16
 74
     0
 42
0.000000001
 43
0.0000000001
 40
0.0
 40
0.0
 40
0.0
 40
0.0
 40
0.2
 40
0.2
 40
0.2
 40
0.2
 40
0.4
 40
0.4
 40
0.4
 40
0.4
 40
0.6
 40
0.6
 40
0.6
 40
0.6
 40
1.0
 40
1.0
 40
1.0
 40
1.0
 10
-24.76816
 20
9.88177
 30
0.0
 10
-24.76816
 20
9.58405
 30
0.0
 10
-25.00951
 20
9.34271
 30
0.0
 10
-25.30722
 20
9.34271
 30
0.0
 10
-25.30722
 20
9.34271
 30
0.0
 10
-25.60494
 20
9.34271
 30
0.0
 10
-25.84628
 20
9.58406
 30
0.0
 10
-25.84628
 20
9.88177
 30
0.0
 10
-25.84628
 20
9.88177
 30
0.0
 10
-25.84628
 20
10.17949
 30
0.0
 10
-25.60493
 20
10.42083
 30
0.0
 10
-25.30722
 20
10.42083
 30
0.0
 10
-25.30722
 20
10.42083
 30
0.0
 10
-25.0095
 20
10.42083
 30
0.0
 10
-24.76816
 20
10.17948
 30
0.0
 10
-24.76816
 20
9.88177
 30
0.0
  0
SPLINE
  5
7A
330
1F
100
AcDbEntity
  8
layer 1
 62
     7
370
    25
100
AcDbSpline
210
0.0
220
0.0
230
1.0
 70
    11
 71
     3
 72
    20
 73
    16
 74
     0
 42
0.000000001
 43
0.0000000001
 40
0.0
 40
0.0
 40
0.0
 40
0.0
 40
0.2
 40
0.2
 40
0.2
 40
0.2
 40
0.4
 40
0.4
 40
0.4
 40
0.4
 40
0.6
 40
0.6
 40
0.6
 40
0.6
 40
1.0
 40
1.0
 40
1.0
 40
1.0
 10
-24.76816
 20
8.48021
 30
0.0
 10
-24.76816
 20
8.18249
 30
0.0
 10
-25.00951
 20
7.94115
 30
0.0
 10
-25.30722
 20
7.94115
 30
0.0
 10
-25.30722
 20
7.94115
 30
0.0
 10
-25.60494
 20
7.94115
 30
0.0
 10
-25.84628
 20
8.1825
 30
0.0
 10
-25.84628
 20
8.48021
 30
0.0
 10
-25.84628
 20
8.48021
 30
0.0
 10
-25.84628
 20
8.77793
 30
0.0
 10
-25.60493
 20
9.01927
 30
0.0
 10
-25.30722
 20
9.01927
 30
0.0
 10
-25.30722
 20
9.01927
 30
0.0
 10
-25.0095
 20
9.01927
 30
0.0
 10
-24.76816
 20
8.77792
 30
0.0
 10
-24.76816
 20
8.48021
 30
0.0
  0
SPLINE
  5
7B
330
1F
100
AcDbEntity
  8
layer 1
 62
     7
370
    25
100
AcDbSpline
210
0.0
220
0.0
230
1.0
 70
    11
 71
     3
 72
    20
 73
    16
 74
     0
 42
0.000000001
 43
0.0000000001
 40
0.0
 40
0.0
 40
0.0
 40
0.0
 40
0.2
 40
0.2
 40
0.2
 40
0.2
 40
0.4
 40
0.4
 40
0.4
 40
0.4
 40
0.6
 40
0.6
 40
0.6
 40
0.6
 40
1.0
 40
1.0
 40
1.0
 40
1.0
 10
-24.76816
 20
7.07865
 30
0.0
 10
-24.76816
 20
6.78093
 30
0.0
 10
-25.00951
 20
6.53959
 30
0.0
 10
-25.30722
 20
6.53959
 30
0.0
 10
-25.30722
 20
6.53959
 30
0.0
 10
-25.60494
 20
6.53959
 30
0.0
 10
-25.84628
 20
6.78094
 30
0.0
 10
-25.84628
 20
7.07865
 30
0.0
 10
-25.84628
 20
7.07865
 30
0.0
 10
-25.84628
 20
7.37637
 30
0.0
 10
-25.60493
 20
7.61771
 30
0.0
 10
-25.30722
 20
7.61771
 30
0.0
 10
-25.30722
 20
7.61771
 30
0.0
 10
-25.0095
 20
7.61771
 30
0.0
 10
-24.76816
 20
7.37636
 30
0.0
 10
-24.76816
 20
7.07865
 30
0.0
  0
SPLINE
  5
7C
330
1F
100
AcDbEntity
  8
layer 1
 62
     7
370
    25
100
AcDbSpline
210
0.0
220
0.0
230
1.0
 70
    11
 71
     3
 72
    20
 73
    16
 74
     0
 42
0.000000001
 43
0.0000000001
 40
0.0
 40
0.0
 40
0.0
 40
0.0
 40
0.2
 40
0.2
 40
0.2
 40
0.2
 40
0.4
 40
0.4
 40
0.4
 40
0.4
 40
0.6
 40
0.6
 40
0.6
 40
0.6
 40
1.0
 40
1.0
 40
1.0
 40
1.0
 10
-23.3666
 20
12.6849
 30
0.0
 10
-23.3666
 20
12.38718
 30
0.0
 10
-23.60795
 20
12.14584
 30
0.0
 10
-23.90566
 20
12.14584
 30
0.0
 10
-23.90566
 20
12.14584
 30
0.0
 10
-24.20338
 20
12.14584
 30
0.0
 10
-24.44472
 20
12.38719
 30
0.0
 10
-24.44472
 20
12.6849
 30
0.0
 10
-24.44472
 20
12.6849
 30
0.0
 10
-24.44472
 20
12.98262
 30
0.0
 10
-24.20337
 20
13.22396
 30
0.0
 10
-23.90566
 20
13.22396
 30
0.0
 10
-23.90566
 20
13.22396
 30
0.0
 10
-23.60794
 20
13.22396
 30
0.0
 10
-23.3666
 20
12.98261
 30
0.0
 10
-23.3666
 20
12.6849
 30
0.0
  0
SPLINE
  5
7D
330
1F
100
AcDbEntity
  8
layer 1
 62
     7
370
    25
100
AcDbSpline
210
0.0
220
0.0
230
1.0
 70
    11
 71
     3
 72
    20
 73
    16
 74
     0
 42
0.000000001
 43
0.0000000001
 40
0.0
 40
0.0
 40
0.0
 40
0.0
 40
0.2
 40
0.2
 40
0.2
 40
0.2
 40
0.4
 40
0.4
 40
0.4
 40
0.4
 40
0.6
 40
0.6
 40
0.6
 40
0.6
 40
1.0
 40
1.0
 40
1.0
 40
1.0
 10
-23.3666
 20
11.28334
 30
0.0
 10
-23.3666
 20
10.98562
 30
0.0
 10
-23.60795
 20
10.74428
 30
0.0
 10
-23.90566
 20
10.74428
 30
0.0
 10
-23.90566
 20
10.74428
 30
0.0
 10
-24.20338
 20
10.74428
 30
0.0
 10
-24.44472
 20
10.98563
 30
0.0
 10
-24.44472
 20
11.28334
 30
0.0
 10
-24.44472
 20
11.28334
 30
0.0
 10
-24.44472
 20
11.58106
 30
0.0
 10
-24.20337
 20
11.8224
 30
0.0
 10
-23.90566
 20
11.8224
 30
0.0
 10
-23.90566
 20
11.8224
 30
0.0
 10
-23.60794
 20
11.8224
 30
0.0
 10
-23.3666
 20
11.58105
 30
0.0
 10
-23.3666
 20
11.28334
 30
0.0
  0
SPLINE
  5
7E
330
1F
100
AcDbEntity
  8
layer 1
 62
     7
370
    25
100
AcDbSpline
210
0.0
220
0.0
230
1.0
 70
    11
 71
     3
 72
    20
 73
    16
 74
     0
 42
0.000000001
 43
0.0000000001
 40
0.0
 40
0.0
 40
0.0
 40
0.0
 40
0.2
 40
0.2
 40
0.2
 40
0.2
 40
0.4
 40
0.4
 40
0.4
 40
0.4
 40
0.6
 40
0.6
 40
0.6
 40
0.6
 40
1.0
 40
1.0
 40
1.0
 40
1.0
 10
-23.3666
 20
9.88177
 30
0.0
 10
-23.3666
 20
9.58405
 30
0.0
 10
-23.60795
 20
9.34271
 30
0.0
 10
-23.90566
 20
9.34271
 30
0.0
 10
-23.90566
 20
9.34271
 30
0.0
 10
-24.20338
 20
9.34271
 30
0.0
 10
-24.44472
 20
9.58406
 30
0.0
 10
-24.44472
 20
9.88177
 30
0.0
 10
-24.44472
 20
9.88177
 30
0.0
 10
-24.44472
 20
10.17949
 30
0.0
 10
-24.20337
 20
10.42083
 30
0.0
 10
-23.90566
 20
10.42083
 30
0.0
 10
-23.90566
 20
10.42083
 30
0.0
 10
-23.60794
 20
10.42083
 30
0.0
 10
-23.3666
 20
10.17948
 30
0.0
 10
-23.3666
 20
9.88177
 30
0.0
  0
SPLINE
  5
7F
330
1F
100
AcDbEntity
  8
layer 1
 62
     7
370
    25
100
AcDbSpline
210
0.0
220
0.0
230
1.0
 70
    11
 71
     3
 72
    20
 73
    16
 74
     0
 42
0.000000001
 43
0.0000000001
 40
0.0
 40
0.0
 40
0.0
 40
0.0
 40
0.2
 40
0.2
 40
0.2
 40
0.2
 40
0.4
 40
0.4
 40
0.4
 40
0.4
 40
0.6
 40
0.6
 40
0.6
 40
0.6
 40
1.0
 40
1.0
 40
1.0
 40
1.0
 10
-23.3666
 20
8.48021
 30
0.0
 10
-23.3666
 20
8.18249
 30
0.0
 10
-23.60795
 20
7.94115
 30
0.0
 10
-23.90566
 20
7.94115
 30
0.0
 10
-23.90566
 20
7.94115
 30
0.0
 10
-24.20338
 20
7.94115
 30
0.0
 10
-24.44472
 20
8.1825
 30
0.0
 10
-24.44472
 20
8.48021
 30
0.0
 10
-24.44472
 20
8.48021
 30
0.0
 10
-24.44472
 20
8.77793
 30
0.0
 10
-24.20337
 20
9.01927
 30
0.0
 10
-23.90566
 20
9.01927
 30
0.0
 10
-23.90566
 20
9.01927
 30
0.0
 10
-23.60794
 20
9.01927
 30
0.0
 10
-23.3666
 20
8.77792
 30
0.0
 10
-23.3666
 20
8.48021
 30
0.0
  0
SPLINE
  5
80
330
1F
100
AcDbEntity
  8
layer 1
 62
     7
370
    25
100
AcDbSpline
210
0.0
220
0.0
230
1.0
 70
    11
 71
     3
 72
    20
 73
    16
 74
     0
 42
0.000000001
 43
0.0000000001
 40
0.0
 40
0.0
 40
0.0
 40
0.0
 40
0.2
 40
0.2
 40
0.2
 40
0.2
 40
0.4
 40
0.4
 40
0.4
 40
0.4
 40
0.6
 40
0.6
 40
0.6
 40
0.6
 40
1.0
 40
1.0
 40
1.0
 40
1.0
 10
-23.3666
 20
7.07865
 30
0.0
 10
-23.3666
 20
6.78093
 30
0.0
 10
-23.60795
 20
6.53959
 30
0.0
 10
-23.90566
 20
6.53959
 30
0.0
 10
-23.90566
 20
6.53959
 30
0.0
 10
-24.20338
 20
6.53959
 30
0.0
 10
-24.44472
 20
6.78094
 30
0.0
 10
-24.44472
 20
7.07865
 30
0.0
 10
-24.44472
 20
7.07865
 30
0.0
 10
-24.44472
 20
7.37637
 30
0.0
 10
-24.20337
 20
7.61771
 30
0.0
 10
-23.90566
 20
7.61771
 30
0.0
 10
-23.90566
 20
7.61771
 30
0.0
 10
-23.60794
 20
7.61771
 30
0.0
 10
-23.3666
 20
7.37636
 30
0.0
 10
-23.3666
 20
7.07865
 30
0.0
  0
SPLINE
  5
81
330
1F
100
AcDbEntity
  8
layer 1
 62
     7
370
    25
100
AcDbSpline
210
0.0
220
0.0
230
1.0
 70
    11
 71
     3
 72
    20
 73
    16
 74
     0
 42
0.000000001
 43
0.0000000001
 40
0.0
 40
0.0
 40
0.0
 40
0.0
 40
0.2
 40
0.2
 40
0.2
 40
0.2
 40
0.4
 40
0.4
 40
0.4
 40
0.4
 40
0.6
 40
0.6
 40
0.6
 40
0.6
 40
1.0
 40
1.0
 40
1.0
 40
1.0
 10
-21.96504
 20
12.6849
 30
0.0
 10
-21.96504
 20
12.38718
 30
0.0
 10
-22.20639
 20
12.14584
 30
0.0
 10
-22.5041
 20
12.14584
 30
0.0
 10
-22.5041
 20
12.14584
 30
0.0
 10
-22.80182
 20
12.14584
 30
0.0
 10
-23.04316
 20
12.38719
 30
0.0
 10
-23.04316
 20
12.6849
 30
0.0
 10
-23.04316
 20
12.6849
 30
0.0
 10
-23.04316
 20
12.98262
 30
0.0
 10
-22.80181
 20
13.22396
 30
0.0
 10
-22.5041
 20
13.22396
 30
0.0
 10
-22.5041
 20
13.22396
 30
0.0
 10
-22.20638
 20
13.22396
 30
0.0
 10
-21.96504
 20
12.98261
 30
0.0
 10
-21.96504
 20
12.6849
 30
0.0
  0
SPLINE
  5
82
330
1F
100
AcDbEntity
  8
layer 1
 62
     7
370
    25
100
AcDbSpline
210
0.0
220
0.0
230
1.0
 70
    11
 71
     3
 72
    20
 73
    16
 74
     0
 42
0.000000001
 43
0.0000000001
 40
0.0
 40
0.0
 40
0.0
 40
0.0
 40
0.2
 40
0.2
 40
0.2
 40
0.2
 40
0.4
 40
0.4
 40
0.4
 40
0.4
 40
0.6
 40
0.6
 40
0.6
 40
0.6
 40
1.0
 40
1.0
 40
1.0
 40
1.0
 10
-21.96504
 20
11.28334
 30
0.0
 10
-21.96504
 20
10.98562
 30
0.0
 10
-22.20639
 20
10.74428
 30
0.0
 10
-22.5041
 20
10.74428
 30
0.0
 10
-22.5041
 20
10.74428
 30
0.0
 10
-22.80182
 20
10.74428
 30
0.0
 10
-23.04316
 20
10.98563
 30
0.0
 10
-23.04316
 20
11.28334
 30
0.0
 10
-23.04316
 20
11.28334
 30
0.0
 10
-23.04316
 20
11.58106
 30
0.0
 10
-22.80181
 20
11.8224
 30
0.0
 10
-22.5041
 20
11.8224
 30
0.0
 10
-22.5041
 20
11.8224
 30
0.0
 10
-22.20638
 20
11.8224
 30
0.0
 10
-21.96504
 20
11.58105
 30
0.0
 10
-21.96504
 20
11.28334
 30
0.0
  0
SPLINE
  5
83
330
1F
100
AcDbEntity
  8
layer 1
 62
     7
370
    25
100
AcDbSpline
210
0.0
220
0.0
230
1.0
 70
    11
 71
     3
 72
    20
 73
    16
 74
     0
 42
0.000000001
 43
0.0000000001
 40
0.0
 40
0.0
 40
0.0
 40
0.0
 40
0.2
 40
0.2
 40
0.2
 40
0.2
 40
0.4
 40
0.4
 40
0.4
 40
0.4
 40
0.6
 40
0.6
 40
0.6
 40
0.6
 40
1.0
 40
1.0
 40
1.0
 40
1.0
 10
-21.96504
 20
9.88177
 30
0.0
 10
-21.96504
 20
9.58405
 30
0.0
 10
-22.20639
 20
9.34271
 30
0.0
 10
-22.5041
 20
9.34271
 30
0.0
 10
-22.5041
 20
9.34271
 30
0.0
 10
-22.80182
 20
9.34271
 30
0.0
 10
-23.04316
 20
9.58406
 30
0.0
 10
-23.04316
 20
9.88177
 30
0.0
 10
-23.04316
 20
9.88177
 30
0.0
 10
-23.04316
 20
10.17949
 30
0.0
 10
-22.80181
 20
10.42083
 30
0.0
 10
-22.5041
 20
10.42083
 30
0.0
 10
-22.5041
 20
10.42083
 30
0.0
 10
-22.20638
 20
10.42083
 30
0.0
 10
-21.96504
 20
10.17948
 30
0.0
 10
-21.96504
 20
9.88177
 30
0.0
  0
SPLINE
  5
84
330
1F
100
AcDbEntity
  8
layer 1
 62
     7
370
    25
100
AcDbSpline
210
0.0
220
0.0
230
1.0
 70
    11
 71
     3
 72
    20
 73
    16
 74
     0
 42
0.000000001
 43
0.0000000001
 40
0.0
 40
0.0
 40
0.0
 40
0.0
 40
0.2
 40
0.2
 40
0.2
 40
0.2
 40
0.4
 40
0.4
 40
0.4
 40
0.4
 40
0.6
 40
0.6
 40
0.6
 40
0.6
 40
1.0
 40
1.0
 40
1.0
 40
1.0
 10
-21.96504
 20
8.48021
 30
0.0
 10
-21.96504
 20
8.18249
 30
0.0
 10
-22.20639
 20
7.94115
 30
0.0
 10
-22.5041
 20
7.94115
 30
0.0
 10
-22.5041
 20
7.94115
 30
0.0
 10
-22.80182
 20
7.94115
 30
0.0
 10
-23.04316
 20
8.1825
 30
0.0
 10
-23.04316
 20
8.48021
 30
0.0
 10
-23.04316
 20
8.48021
 30
0.0
 10
-23.04316
 20
8.77793
 30
0.0
 10
-22.80181
 20
9.01927
 30
0.0
 10
-22.5041
 20
9.01927
 30
0.0
 10
-22.5041
 20
9.01927
 30
0.0
 10
-22.20638
 20
9.01927
 30
0.0
 10
-21.96504
 20
8.77792
 30
0.0
 10
-21.96504
 20
8.48021
 30
0.0
  0
SPLINE
  5
85
330
1F
100
AcDbEntity
  8
layer 1
 62
     7
370
    25
100
AcDbSpline
210
0.0
220
0.0
230
1.0
 70
    11
 71
     3
 72
    20
 73
    16
 74
     0
 42
0.000000001
 43
0.0000000001
 40
0.0
 40
0.0
 40
0.0
 40
0.0
 40
0.2
 40
0.2
 40
0.2
 40
0.2
 40
0.4
 40
0.4
 40
0.4
 40
0.4
 40
0.6
 40
0.6
 40
0.6
 40
0.6
 40
1.0
 40
1.0
 40
1.0
 40
1.0
 10
-21.96504
 20
7.07865
 30
0.0
 10
-21.96504
 20
6.78093
 30
0.0
 10
-22.20639
 20
6.53959
 30
0.0
 10
-22.5041
 20
6.53959
 30
0.0
 10
-22.5041
 20
6.53959
 30
0.0
 10
-22.80182
 20
6.53959
 30
0.0
 10
-23.04316
 20
6.78094
 30
0.0
 10
-23.04316
 20
7.07865
 30
0.0
 10
-23.04316
 20
7.07865
 30
0.0
 10
-23.04316
 20
7.37637
 30
0.0
 10
-22.80181
 20
7.61771
 30
0.0
 10
-22.5041
 20
7.61771
 30
0.0
 10
-22.5041
 20
7.61771
 30
0.0
 10
-22.20638
 20
7.61771
 30
0.0
 10
-21.96504
 20
7.37636
 30
0.0
 10
-21.96504
 20
7.07865
 30
0.0
  0
SPLINE
  5
86
330
1F
100
AcDbEntity
  8
layer 1
 62
     7
370
    25
100
AcDbSpline
210
0.0
220
0.0
230
1.0
 70
    11
 71
     3
 72
    20
 73
    16
 74
     0
 42
0.000000001
 43
0.0000000001
 40
0.0
 40
0.0
 40
0.0
 40
0.0
 40
0.2
 40
0.2
 40
0.2
 40
0.2
 40
0.4
 40
0.4
 40
0.4
 40
0.4
 40
0.6
 40
0.6
 40
0.6
 40
0.6
 40
1.0
 40
1.0
 40
1.0
 40
1.0
 10
-20.56347
 20
12.6849
 30
0.0
 10
-20.56347
 20
12.38718
 30
0.0
 10
-20.80482
 20
12.14584
 30
0.0
 10
-21.10253
 20
12.14584
 30
0.0
 10
-21.10253
 20
12.14584
 30
0.0
 10
-21.40025
 20
12.14584
 30
0.0
 10
-21.64159
 20
12.38719
 30
0.0
 10
-21.64159
 20
12.6849
 30
0.0
 10
-21.64159
 20
12.6849
 30
0.0
 10
-21.64159
 20
12.98262
 30
0.0
 10
-21.40024
 20
13.22396
 30
0.0
 10
-21.10253
 20
13.22396
 30
0.0
 10
-21.10253
 20
13.22396
 30
0.0
 10
-20.80481
 20
13.22396
 30
0.0
 10
-20.56347
 20
12.98261
 30
0.0
 10
-20.56347
 20
12.6849
 30
0.0
  0
SPLINE
  5
87
330
1F
100
AcDbEntity
  8
layer 1
 62
     7
370
    25
100
AcDbSpline
210
0.0
220
0.0
230
1.0
 70
    11
 71
     3
 72
    20
 73
    16
 74
     0
 42
0.000000001
 43
0.0000000001
 40
0.0
 40
0.0
 40
0.0
 40
0.0
 40
0.2
 40
0.2
 40
0.2
 40
0.2
 40
0.4
 40
0.4
 40
0.4
 40
0.4
 40
0.6
 40
0.6
 40
0.6
 40
0.6
 40
1.0
 40
1.0
 40
1.0
 40
1.0
 10
-20.56347
 20
11.28334
 30
0.0
 10
-20.56347
 20
10.98562
 30
0.0
 10
-20.80482
 20
10.74428
 30
0.0
 10
-21.10253
 20
10.74428
 30
0.0
 10
-21.10253
 20
10.74428
 30
0.0
 10
-21.40025
 20
10.74428
 30
0.0
 10
-21.64159
 20
10.98563
 30
0.0
 10
-21.64159
 20
11.28334
 30
0.0
 10
-21.64159
 20
11.28334
 30
0.0
 10
-21.64159
 20
11.58106
 30
0.0
 10
-21.40024
 20
11.8224
 30
0.0
 10
-21.10253
 20
11.8224
 30
0.0
 10
-21.10253
 20
11.8224
 30
0.0
 10
-20.80481
 20
11.8224
 30
0.0
 10
-20.56347
 20
11.58105
 30
0.0
 10
-20.56347
 20
11.28334
 30
0.0
  0
SPLINE
  5
88
330
1F
100
AcDbEntity
  8
layer 1
 62
     7
370
    25
100
AcDbSpline
210
0.0
220
0.0
230
1.0
 70
    11
 71
     3
 72
    20
 73
    16
 74
     0
 42
0.000000001
 43
0.0000000001
 40
0.0
 40
0.0
 40
0.0
 40
0.0
 40
0.2
 40
0.2
 40
0.2
 40
0.2
 40
0.4
 40
0.4
 40
0.4
 40
0.4
 40
0.6
 40
0.6
 40
0.6
 40
0.6
 40
1.0
 40
1.0
 40
1.0
 40
1.0
 10
-20.56347
 20
9.88177
 30
0.0
 10
-20.56347
 20
9.58405
 30
0.0
 10
-20.80482
 20
9.34271
 30
0.0
 10
-21.10253
 20
9.34271
 30
0.0
 10
-21.10253
 20
9.34271
 30
0.0
 10
-21.40025
 20
9.34271
 30
0.0
 10
-21.64159
 20
9.58406
 30
0.0
 10
-21.64159
 20
9.88177
 30
0.0
 10
-21.64159
 20
9.88177
 30
0.0
 10
-21.64159
 20
10.17949
 30
0.0
 10
-21.40024
 20
10.42083
 30
0.0
 10
-21.10253
 20
10.42083
 30
0.0
 10
-21.10253
 20
10.42083
 30
0.0
 10
-20.80481
 20
10.42083
 30
0.0
 10
-20.56347
 20
10.17948
 30
0.0
 10
-20.56347
 20
9.88177
 30
0.0
  0
SPLINE
  5
89
330
1F
100
AcDbEntity
  8
layer 1
 62
     7
370
    25
100
AcDbSpline
210
0.0
220
0.0
230
1.0
 70
    11
 71
     3
 72
    20
 73
    16
 74
     0
 42
0.000000001
 43
0.0000000001
 40
0.0
 40
0.0
 40
0.0
 40
0.0
 40
0.2
 40
0.2
 40
0.2
 40
0.2
 40
0.4
 40
0.4
 40
0.4
 40
0.4
 40
0.6
 40
0.6
 40
0.6
 40
0.6
 40
1.0
 40
1.0
 40
1.0
 40
1.0
 10
-20.56347
 20
8.48021
 30
0.0
 10
-20.56347
 20
8.18249
 30
0.0
 10
-20.80482
 20
7.94115
 30
0.0
 10
-21.10253
 20
7.94115
 30
0.0
 10
-21.10253
 20
7.94115
 30
0.0
 10
-21.40025
 20
7.94115
 30
0.0
 10
-21.64159
 20
8.1825
 30
0.0
 10
-21.64159
 20
8.48021
 30
0.0
 10
-21.64159
 20
8.48021
 30
0.0
 10
-21.64159
 20
8.77793
 30
0.0
 10
-21.40024
 20
9.01927
 30
0.0
 10
-21.10253
 20
9.01927
 30
0.0
 10
-21.10253
 20
9.01927
 30
0.0
 10
-20.80481
 20
9.01927
 30
0.0
 10
-20.56347
 20
8.77792
 30
0.0
 10
-20.56347
 20
8.48021
 30
0.0
  0
SPLINE
  5
8A
330
1F
100
AcDbEntity
  8
layer 1
 62
     7
370
    25
100
AcDbSpline
210
0.0
220
0.0
230
1.0
 70
    11
 71
     3
 72
    20
 73
    16
 74
     0
 42
0.000000001
 43
0.0000000001
 40
0.0
 40
0.0
 40
0.0
 40
0.0
 40
0.2
 40
0.2
 40
0.2
 40
0.2
 40
0.4
 40
0.4
 40
0.4
 40
0.4
 40
0.6
 40
0.6
 40
0.6
 40
0.6
 40
1.0
 40
1.0
 40
1.0
 40
1.0
 10
-20.56347
 20
7.07865
 30
0.0
 10
-20.56347
 20
6.78093
 30
0.0
 10
-20.80482
 20
6.53959
 30
0.0
 10
-21.10253
 20
6.53959
 30
0.0
 10
-21.10253
 20
6.53959
 30
0.0
 10
-21.40025
 20
6.53959
 30
0.0
 10
-21.64159
 20
6.78094
 30
0.0
 10
-21.64159
 20
7.07865
 30
0.0
 10
-21.64159
 20
7.07865
 30
0.0
 10
-21.64159
 20
7.37637
 30
0.0
 10
-21.40024
 20
7.61771
 30
0.0
 10
-21.10253
 20
7.61771
 30
0.0
 10
-21.10253
 20
7.61771
 30
0.0
 10
-20.80481
 20
7.61771
 30
0.0
 10
-20.56347
 20
7.37636
 30
0.0
 10
-20.56347
 20
7.07865
 30
0.0
  0
SPLINE
  5
8B
330
1F
100
AcDbEntity
  8
layer 1
 62
     7
370
    25
100
AcDbSpline
210
0.0
220
0.0
230
1.0
 70
    11
 71
     3
 72
    52
 73
    48
 74
     0
 42
0.000000001
 43
0.0000000001
 40
0.0
 40
0.0
 40
0.0
 40
0.0
 40
0.0769230769230769
 40
0.0769230769230769
 40
0.0769230769230769
 40
0.0769230769230769
 40
0.1538461538461539
 40
0.1538461538461539
 40
0.1538461538461539
 40
0.1538461538461539
 40
0.2307692307692308
 40
0.2307692307692308
 40
0.2307692307692308
 40
0.2307692307692308
 40
0.3076923076923077
 40
0.3076923076923077
 40
0.3076923076923077
 40
0.3076923076923077
 40
0.3846153846153846
 40
0.3846153846153846
 40
0.3846153846153846
 40
0.3846153846153846
 40
0.4615384615384616
 40
0.4615384615384616
 40
0.4615384615384616
 40
0.4615384615384616
 40
0.5384615384615384
 40
0.5384615384615384
 40
0.5384615384615384
 40
0.5384615384615384
 40
0.6153846153846154
 40
0.6153846153846154
 40
0.6153846153846154
 40
0.6153846153846154
 40
0.6923076923076923
 40
0.6923076923076923
 40
0.6923076923076923
 40
0.6923076923076923
 40
0.7692307692307693
 40
0.7692307692307693
 40
0.7692307692307693
 40
0.7692307692307693
 40
0.8461538461538461
 40
0.8461538461538461
 40
0.8461538461538461
 40
0.8461538461538461
 40
1.0
 40
1.0
 40
1.0
 40
1.0
 10
-4.15761
 20
9.69814
 30
0.0
 10
-4.15761
 20
9.69814
 30
0.0
 10
-3.60777
 20
9.69814
 30
0.0
 10
-3.60777
 20
9.69814
 30
0.0
 10
-3.60777
 20
9.69814
 30
0.0
 10
-3.60777
 20
9.69814
 30
0.0
 10
-3.60777
 20
9.41785
 30
0.0
 10
-3.60777
 20
9.41785
 30
0.0
 10
-3.60777
 20
9.41785
 30
0.0
 10
-3.60777
 20
9.41785
 30
0.0
 10
-2.25591
 20
9.41785
 30
0.0
 10
-2.25591
 20
9.41785
 30
0.0
 10
-2.25591
 20
9.41785
 30
0.0
 10
-2.25591
 20
9.41785
 30
0.0
 10
-2.25591
 20
9.69814
 30
0.0
 10
-2.25591
 20
9.69814
 30
0.0
 10
-2.25591
 20
9.69814
 30
0.0
 10
-2.25591
 20
9.69814
 30
0.0
 10
-1.70607
 20
9.69814
 30
0.0
 10
-1.70607
 20
9.69814
 30
0.0
 10
-1.70607
 20
9.69814
 30
0.0
 10
-1.70607
 20
9.69814
 30
0.0
 10
-1.70607
 20
11.11118
 30
0.0
 10
-1.70607
 20
11.11118
 30
0.0
 10
-1.70607
 20
11.11118
 30
0.0
 10
-1.70607
 20
11.11118
 30
0.0
 10
-2.25591
 20
11.11118
 30
0.0
 10
-2.25591
 20
11.11118
 30
0.0
 10
-2.25591
 20
11.11118
 30
0.0
 10
-2.25591
 20
11.11118
 30
0.0
 10
-2.25591
 20
11.39147
 30
0.0
 10
-2.25591
 20
11.39147
 30
0.0
 10
-2.25591
 20
11.39147
 30
0.0
 10
-2.25591
 20
11.39147
 30
0.0
 10
-3.60777
 20
11.39147
 30
0.0
 10
-3.60777
 20
11.39147
 30
0.0
 10
-3.60777
 20
11.39147
 30
0.0
 10
-3.60777
 20
11.39147
 30
0.0
 10
-3.60777
 20
11.11118
 30
0.0
 10
-3.60777
 20
11.11118
 30
0.0
 10
-3.60777
 20
11.11118
 30
0.0
 10
-3.60777
 20
11.11118
 30
0.0
 10
-4.15761
 20
11.11118
 30
0.0
 10
-4.15761
 20
11.11118
 30
0.0
 10
-4.15761
 20
11.11118
 30
0.0
 10
-4.15761
 20
11.11118
 30
0.0
 10
-4.15761
 20
9.69814
 30
0.0
 10
-4.15761
 20
9.69814
 30
0.0
  0
SPLINE
  5
8C
330
1F
100
AcDbEntity
  8
layer 1
 62
     7
370
    25
100
AcDbSpline
210
0.0
220
0.0
230
1.0
 70
    11
 71
     3
 72
    52
 73
    48
 74
     0
 42
0.000000001
 43
0.0000000001
 40
0.0
 40
0.0
 40
0.0
 40
0.0
 40
0.0769230769230769
 40
0.0769230769230769
 40
0.0769230769230769
 40
0.0769230769230769
 40
0.1538461538461539
 40
0.1538461538461539
 40
0.1538461538461539
 40
0.1538461538461539
 40
0.2307692307692308
 40
0.2307692307692308
 40
0.2307692307692308
 40
0.2307692307692308
 40
0.3076923076923077
 40
0.3076923076923077
 40
0.3076923076923077
 40
0.3076923076923077
 40
0.3846153846153846
 40
0.3846153846153846
 40
0.3846153846153846
 40
0.3846153846153846
 40
0.4615384615384616
 40
0.4615384615384616
 40
0.4615384615384616
 40
0.4615384615384616
 40
0.5384615384615384
 40
0.5384615384615384
 40
0.5384615384615384
 40
0.5384615384615384
 40
0.6153846153846154
 40
0.6153846153846154
 40
0.6153846153846154
 40
0.6153846153846154
 40
0.6923076923076923
 40
0.6923076923076923
 40
0.6923076923076923
 40
0.6923076923076923
 40
0.7692307692307693
 40
0.7692307692307693
 40
0.7692307692307693
 40
0.7692307692307693
 40
0.8461538461538461
 40
0.8461538461538461
 40
0.8461538461538461
 40
0.8461538461538461
 40
1.0
 40
1.0
 40
1.0
 40
1.0
 10
-4.15761
 20
11.7776
 30
0.0
 10
-4.15761
 20
11.7776
 30
0.0
 10
-3.60777
 20
11.7776
 30
0.0
 10
-3.60777
 20
11.7776
 30
0.0
 10
-3.60777
 20
11.7776
 30
0.0
 10
-3.60777
 20
11.7776
 30
0.0
 10
-3.60777
 20
11.49731
 30
0.0
 10
-3.60777
 20
11.49731
 30
0.0
 10
-3.60777
 20
11.49731
 30
0.0
 10
-3.60777
 20
11.49731
 30
0.0
 10
-2.25591
 20
11.49731
 30
0.0
 10
-2.25591
 20
11.49731
 30
0.0
 10
-2.25591
 20
11.49731
 30
0.0
 10
-2.25591
 20
11.49731
 30
0.0
 10
-2.25591
 20
11.7776
 30
0.0
 10
-2.25591
 20
11.7776
 30
0.0
 10
-2.25591
 20
11.7776
 30
0.0
 10
-2.25591
 20
11.7776
 30
0.0
 10
-1.70607
 20
11.7776
 30
0.0
 10
-1.70607
 20
11.7776
 30
0.0
 10
-1.70607
 20
11.7776
 30
0.0
 10
-1.70607
 20
11.7776
 30
0.0
 10
-1.70607
 20
13.19064
 30
0.0
 10
-1.70607
 20
13.19064
 30
0.0
 10
-1.70607
 20
13.19064
 30
0.0
 10
-1.70607
 20
13.19064
 30
0.0
 10
-2.25591
 20
13.19064
 30
0.0
 10
-2.25591
 20
13.19064
 30
0.0
 10
-2.25591
 20
13.19064
 30
0.0
 10
-2.25591
 20
13.19064
 30
0.0
 10
-2.25591
 20
13.47093
 30
0.0
 10
-2.25591
 20
13.47093
 30
0.0
 10
-2.25591
 20
13.47093
 30
0.0
 10
-2.25591
 20
13.47093
 30
0.0
 10
-3.60777
 20
13.47093
 30
0.0
 10
-3.60777
 20
13.47093
 30
0.0
 10
-3.60777
 20
13.47093
 30
0.0
 10
-3.60777
 20
13.47093
 30
0.0
 10
-3.60777
 20
13.19064
 30
0.0
 10
-3.60777
 20
13.19064
 30
0.0
 10
-3.60777
 20
13.19064
 30
0.0
 10
-3.60777
 20
13.19064
 30
0.0
 10
-4.15761
 20
13.19064
 30
0.0
 10
-4.15761
 20
13.19064
 30
0.0
 10
-4.15761
 20
13.19064
 30
0.0
 10
-4.15761
 20
13.19064
 30
0.0
 10
-4.15761
 20
11.7776
 30
0.0
 10
-4.15761
 20
11.7776
 30
0.0
  0
SPLINE
  5
8D
330
1F
100
AcDbEntity
  8
layer 1
 62
     7
370
    25
100
AcDbSpline
210
0.0
220
0.0
230
1.0
 70
    11
 71
     3
 72
    52
 73
    48
 74
     0
 42
0.000000001
 43
0.0000000001
 40
0.0
 40
0.0
 40
0.0
 40
0.0
 40
0.0769230769230769
 40
0.0769230769230769
 40
0.0769230769230769
 40
0.0769230769230769
 40
0.1538461538461539
 40
0.1538461538461539
 40
0.1538461538461539
 40
0.1538461538461539
 40
0.2307692307692308
 40
0.2307692307692308
 40
0.2307692307692308
 40
0.2307692307692308
 40
0.3076923076923077
 40
0.3076923076923077
 40
0.3076923076923077
 40
0.3076923076923077
 40
0.3846153846153846
 40
0.3846153846153846
 40
0.3846153846153846
 40
0.3846153846153846
 40
0.4615384615384616
 40
0.4615384615384616
 40
0.4615384615384616
 40
0.4615384615384616
 40
0.5384615384615384
 40
0.5384615384615384
 40
0.5384615384615384
 40
0.5384615384615384
 40
0.6153846153846154
 40
0.6153846153846154
 40
0.6153846153846154
 40
0.6153846153846154
 40
0.6923076923076923
 40
0.6923076923076923
 40
0.6923076923076923
 40
0.6923076923076923
 40
0.7692307692307693
 40
0.7692307692307693
 40
0.7692307692307693
 40
0.7692307692307693
 40
0.8461538461538461
 40
0.8461538461538461
 40
0.8461538461538461
 40
0.8461538461538461
 40
1.0
 40
1.0
 40
1.0
 40
1.0
 10
-4.15761
 20
7.61868
 30
0.0
 10
-4.15761
 20
7.61868
 30
0.0
 10
-3.60777
 20
7.61868
 30
0.0
 10
-3.60777
 20
7.61868
 30
0.0
 10
-3.60777
 20
7.61868
 30
0.0
 10
-3.60777
 20
7.61868
 30
0.0
 10
-3.60777
 20
7.33839
 30
0.0
 10
-3.60777
 20
7.33839
 30
0.0
 10
-3.60777
 20
7.33839
 30
0.0
 10
-3.60777
 20
7.33839
 30
0.0
 10
-2.25591
 20
7.33839
 30
0.0
 10
-2.25591
 20
7.33839
 30
0.0
 10
-2.25591
 20
7.33839
 30
0.0
 10
-2.25591
 20
7.33839
 30
0.0
 10
-2.25591
 20
7.61868
 30
0.0
 10
-2.25591
 20
7.61868
 30
0.0
 10
-2.25591
 20
7.61868
 30
0.0
 10
-2.25591
 20
7.61868
 30
0.0
 10
-1.70607
 20
7.61868
 30
0.0
 10
-1.70607
 20
7.61868
 30
0.0
 10
-1.70607
 20
7.61868
 30
0.0
 10
-1.70607
 20
7.61868
 30
0.0
 10
-1.70607
 20
9.03172
 30
0.0
 10
-1.70607
 20
9.03172
 30
0.0
 10
-1.70607
 20
9.03172
 30
0.0
 10
-1.70607
 20
9.03172
 30
0.0
 10
-2.25591
 20
9.03172
 30
0.0
 10
-2.25591
 20
9.03172
 30
0.0
 10
-2.25591
 20
9.03172
 30
0.0
 10
-2.25591
 20
9.03172
 30
0.0
 10
-2.25591
 20
9.31201
 30
0.0
 10
-2.25591
 20
9.31201
 30
0.0
 10
-2.25591
 20
9.31201
 30
0.0
 10
-2.25591
 20
9.31201
 30
0.0
 10
-3.60777
 20
9.31201
 30
0.0
 10
-3.60777
 20
9.31201
 30
0.0
 10
-3.60777
 20
9.31201
 30
0.0
 10
-3.60777
 20
9.31201
 30
0.0
 10
-3.60777
 20
9.03172
 30
0.0
 10
-3.60777
 20
9.03172
 30
0.0
 10
-3.60777
 20
9.03172
 30
0.0
 10
-3.60777
 20
9.03172
 30
0.0
 10
-4.15761
 20
9.03172
 30
0.0
 10
-4.15761
 20
9.03172
 30
0.0
 10
-4.15761
 20
9.03172
 30
0.0
 10
-4.15761
 20
9.03172
 30
0.0
 10
-4.15761
 20
7.61868
 30
0.0
 10
-4.15761
 20
7.61868
 30
0.0
  0
SPLINE
  5
8E
330
1F
100
AcDbEntity
  8
layer 1
 62
     7
370
    25
100
AcDbSpline
210
0.0
220
0.0
230
1.0
 70
    11
 71
     3
 72
   312
 73
   308
 74
     0
 42
0.000000001
 43
0.0000000001
 40
0.0
 40
0.0
 40
0.0
 40
0.0
 40
0.0128205128205128
 40
0.0128205128205128
 40
0.0128205128205128
 40
0.0128205128205128
 40
0.0256410256410256
 40
0.0256410256410256
 40
0.0256410256410256
 40
0.0256410256410256
 40
0.0384615384615385
 40
0.0384615384615385
 40
0.0384615384615385
 40
0.0384615384615385
 40
0.0512820512820513
 40
0.0512820512820513
 40
0.0512820512820513
 40
0.0512820512820513
 40
0.0641025641025641
 40
0.0641025641025641
 40
0.0641025641025641
 40
0.0641025641025641
 40
0.0769230769230769
 40
0.0769230769230769
 40
0.0769230769230769
 40
0.0769230769230769
 40
0.0897435897435897
 40
0.0897435897435897
 40
0.0897435897435897
 40
0.0897435897435897
 40
0.1025641025641026
 40
0.1025641025641026
 40
0.1025641025641026
 40
0.1025641025641026
 40
0.1153846153846154
 40
0.1153846153846154
 40
0.1153846153846154
 40
0.1153846153846154
 40
0.1282051282051282
 40
0.1282051282051282
 40
0.1282051282051282
 40
0.1282051282051282
 40
0.141025641025641
 40
0.141025641025641
 40
0.141025641025641
 40
0.141025641025641
 40
0.1538461538461539
 40
0.1538461538461539
 40
0.1538461538461539
 40
0.1538461538461539
 40
0.1666666666666667
 40
0.1666666666666667
 40
0.1666666666666667
 40
0.1666666666666667
 40
0.1794871794871795
 40
0.1794871794871795
 40
0.1794871794871795
 40
0.1794871794871795
 40
0.1923076923076923
 40
0.1923076923076923
 40
0.1923076923076923
 40
0.1923076923076923
 40
0.2051282051282051
 40
0.2051282051282051
 40
0.2051282051282051
 40
0.2051282051282051
 40
0.217948717948718
 40
0.217948717948718
 40
0.217948717948718
 40
0.217948717948718
 40
0.2307692307692308
 40
0.2307692307692308
 40
0.2307692307692308
 40
0.2307692307692308
 40
0.2435897435897436
 40
0.2435897435897436
 40
0.2435897435897436
 40
0.2435897435897436
 40
0.2564102564102564
 40
0.2564102564102564
 40
0.2564102564102564
 40
0.2564102564102564
 40
0.2692307692307692
 40
0.2692307692307692
 40
0.2692307692307692
 40
0.2692307692307692
 40
0.282051282051282
 40
0.282051282051282
 40
0.282051282051282
 40
0.282051282051282
 40
0.2948717948717949
 40
0.2948717948717949
 40
0.2948717948717949
 40
0.2948717948717949
 40
0.3076923076923077
 40
0.3076923076923077
 40
0.3076923076923077
 40
0.3076923076923077
 40
0.3205128205128205
 40
0.3205128205128205
 40
0.3205128205128205
 40
0.3205128205128205
 40
0.3333333333333333
 40
0.3333333333333333
 40
0.3333333333333333
 40
0.3333333333333333
 40
0.3461538461538461
 40
0.3461538461538461
 40
0.3461538461538461
 40
0.3461538461538461
 40
0.358974358974359
 40
0.358974358974359
 40
0.358974358974359
 40
0.358974358974359
 40
0.3717948717948718
 40
0.3717948717948718
 40
0.3717948717948718
 40
0.3717948717948718
 40
0.3846153846153846
 40
0.3846153846153846
 40
0.3846153846153846
 40
0.3846153846153846
 40
0.3974358974358974
 40
0.3974358974358974
 40
0.3974358974358974
 40
0.3974358974358974
 40
0.4102564102564102
 40
0.4102564102564102
 40
0.4102564102564102
 40
0.4102564102564102
 40
0.4230769230769231
 40
0.4230769230769231
 40
0.4230769230769231
 40
0.4230769230769231
 40
0.4358974358974359
 40
0.4358974358974359
 40
0.4358974358974359
 40
0.4358974358974359
 40
0.4487179487179487
 40
0.4487179487179487
 40
0.4487179487179487
 40
0.4487179487179487
 40
0.4615384615384616
 40
0.4615384615384616
 40
0.4615384615384616
 40
0.4615384615384616
 40
0.4743589743589743
 40
0.4743589743589743
 40
0.4743589743589743
 40
0.4743589743589743
 40
0.4871794871794872
 40
0.4871794871794872
 40
0.4871794871794872
 40
0.4871794871794872
 40
0.5
 40
0.5
 40
0.5
 40
0.5
 40
0.5128205128205128
 40
0.5128205128205128
 40
0.5128205128205128
 40
0.5128205128205128
 40
0.5256410256410257
 40
0.5256410256410257
 40
0.5256410256410257
 40
0.5256410256410257
 40
0.5384615384615384
 40
0.5384615384615384
 40
0.5384615384615384
 40
0.5384615384615384
 40
0.5512820512820513
 40
0.5512820512820513
 40
0.5512820512820513
 40
0.5512820512820513
 40
0.5641025641025641
 40
0.5641025641025641
 40
0.5641025641025641
 40
0.5641025641025641
 40
0.5769230769230769
 40
0.5769230769230769
 40
0.5769230769230769
 40
0.5769230769230769
 40
0.5897435897435898
 40
0.5897435897435898
 40
0.5897435897435898
 40
0.5897435897435898
 40
0.6025641025641025
 40
0.6025641025641025
 40
0.6025641025641025
 40
0.6025641025641025
 40
0.6153846153846154
 40
0.6153846153846154
 40
0.6153846153846154
 40
0.6153846153846154
 40
0.6282051282051282
 40
0.6282051282051282
 40
0.6282051282051282
 40
0.6282051282051282
 40
0.6410256410256411
 40
0.6410256410256411
 40
0.6410256410256411
 40
0.6410256410256411
 40
0.6538461538461539
 40
0.6538461538461539
 40
0.6538461538461539
 40
0.6538461538461539
 40
0.6666666666666666
 40
0.6666666666666666
 40
0.6666666666666666
 40
0.6666666666666666
 40
0.6794871794871795
 40
0.6794871794871795
 40
0.6794871794871795
 40
0.6794871794871795
 40
0.6923076923076923
 40
0.6923076923076923
 40
0.6923076923076923
 40
0.6923076923076923
 40
0.7051282051282052
 40
0.7051282051282052
 40
0.7051282051282052
 40
0.7051282051282052
 40
0.717948717948718
 40
0.717948717948718
 40
0.717948717948718
 40
0.717948717948718
 40
0.7307692307692307
 40
0.7307692307692307
 40
0.7307692307692307
 40
0.7307692307692307
 40
0.7435897435897436
 40
0.7435897435897436
 40
0.7435897435897436
 40
0.7435897435897436
 40
0.7564102564102564
 40
0.7564102564102564
 40
0.7564102564102564
 40
0.7564102564102564
 40
0.7692307692307693
 40
0.7692307692307693
 40
0.7692307692307693
 40
0.7692307692307693
 40
0.782051282051282
 40
0.782051282051282
 40
0.782051282051282
 40
0.782051282051282
 40
0.7948717948717948
 40
0.7948717948717948
 40
0.7948717948717948
 40
0.7948717948717948
 40
0.8076923076923077
 40
0.8076923076923077
 40
0.8076923076923077
 40
0.8076923076923077
 40
0.8205128205128205
 40
0.8205128205128205
 40
0.8205128205128205
 40
0.8205128205128205
 40
0.8333333333333334
 40
0.8333333333333334
 40
0.8333333333333334
 40
0.8333333333333334
 40
0.8461538461538461
 40
0.8461538461538461
 40
0.8461538461538461
 40
0.8461538461538461
 40
0.8589743589743589
 40
0.8589743589743589
 40
0.8589743589743589
 40
0.8589743589743589
 40
0.8717948717948718
 40
0.8717948717948718
 40
0.8717948717948718
 40
0.8717948717948718
 40
0.8846153846153846
 40
0.8846153846153846
 40
0.8846153846153846
 40
0.8846153846153846
 40
0.8974358974358975
 40
0.8974358974358975
 40
0.8974358974358975
 40
0.8974358974358975
 40
0.9102564102564102
 40
0.9102564102564102
 40
0.9102564102564102
 40
0.9102564102564102
 40
0.9230769230769231
 40
0.9230769230769231
 40
0.9230769230769231
 40
0.9230769230769231
 40
0.9358974358974359
 40
0.9358974358974359
 40
0.9358974358974359
 40
0.9358974358974359
 40
0.9487179487179487
 40
0.9487179487179487
 40
0.9487179487179487
 40
0.9487179487179487
 40
0.9615384615384616
 40
0.9615384615384616
 40
0.9615384615384616
 40
0.9615384615384616
 40
0.9743589743589743
 40
0.9743589743589743
 40
0.9743589743589743
 40
0.9743589743589743
 40
1.0
 40
1.0
 40
1.0
 40
1.0
 10
-11.25399
 20
13.70335
 30
0.0
 10
-11.30464
 20
13.70335
 30
0.0
 10
-11.35401
 20
13.69823
 30
0.0
 10
-11.40199
 20
13.68929
 30
0.0
 10
-11.40199
 20
13.68929
 30
0.0
 10
-11.41088
 20
13.68764
 30
0.0
 10
-11.41966
 20
13.68544
 30
0.0
 10
-11.42845
 20
13.6835
 30
0.0
 10
-11.42845
 20
13.6835
 30
0.0
 10
-11.47414
 20
13.67337
 30
0.0
 10
-11.51842
 20
13.65971
 30
0.0
 10
-11.56074
 20
13.64216
 30
0.0
 10
-11.56074
 20
13.64216
 30
0.0
 10
-11.56179
 20
13.64172
 30
0.0
 10
-11.56299
 20
13.64178
 30
0.0
 10
-11.56405
 20
13.64133
 30
0.0
 10
-11.56405
 20
13.64133
 30
0.0
 10
-11.56421
 20
13.64126
 30
0.0
 10
-11.56475
 20
13.6415
 30
0.0
 10
-11.56488
 20
13.64133
 30
0.0
 10
-11.56488
 20
13.64133
 30
0.0
 10
-11.565
 20
13.64116
 30
0.0
 10
-11.56472
 20
13.64057
 30
0.0
 10
-11.56488
 20
13.6405
 30
0.0
 10
-11.56488
 20
13.6405
 30
0.0
 10
-11.56738
 20
13.63944
 30
0.0
 10
-11.56981
 20
13.63823
 30
0.0
 10
-11.57232
 20
13.63719
 30
0.0
 10
-11.57232
 20
13.63719
 30
0.0
 10
-11.59803
 20
13.62604
 30
0.0
 10
-11.6217
 20
13.61119
 30
0.0
 10
-11.64591
 20
13.5975
 30
0.0
 10
-11.64591
 20
13.5975
 30
0.0
 10
-11.6703
 20
13.58353
 30
0.0
 10
-11.69506
 20
13.57008
 30
0.0
 10
-11.71784
 20
13.55368
 30
0.0
 10
-11.71784
 20
13.55368
 30
0.0
 10
-11.75118
 20
13.52983
 30
0.0
 10
-11.7829
 20
13.50456
 30
0.0
 10
-11.8121
 20
13.47596
 30
0.0
 10
-11.8121
 20
13.47596
 30
0.0
 10
-11.81403
 20
13.47403
 30
0.0
 10
-11.81595
 20
13.47211
 30
0.0
 10
-11.81789
 20
13.47017
 30
0.0
 10
-11.81789
 20
13.47017
 30
0.0
 10
-11.82052
 20
13.46754
 30
0.0
 10
-11.82274
 20
13.46456
 30
0.0
 10
-11.82533
 20
13.4619
 30
0.0
 10
-11.82533
 20
13.4619
 30
0.0
 10
-11.85361
 20
13.43282
 30
0.0
 10
-11.87947
 20
13.40079
 30
0.0
 10
-11.90305
 20
13.36764
 30
0.0
 10
-11.90305
 20
13.36764
 30
0.0
 10
-11.91307
 20
13.35349
 30
0.0
 10
-11.92208
 20
13.33862
 30
0.0
 10
-11.93116
 20
13.32382
 30
0.0
 10
-11.93116
 20
13.32382
 30
0.0
 10
-11.95088
 20
13.29183
 30
0.0
 10
-11.96897
 20
13.25942
 30
0.0
 10
-11.98408
 20
13.2246
 30
0.0
 10
-11.98408
 20
13.2246
 30
0.0
 10
-11.98522
 20
13.22199
 30
0.0
 10
-11.9871
 20
13.21979
 30
0.0
 10
-11.98821
 20
13.21716
 30
0.0
 10
-11.98821
 20
13.21716
 30
0.0
 10
-11.98865
 20
13.21611
 30
0.0
 10
-11.9886
 20
13.2149
 30
0.0
 10
-11.98904
 20
13.21385
 30
0.0
 10
-11.98904
 20
13.21385
 30
0.0
 10
-12.00782
 20
13.16868
 30
0.0
 10
-12.02259
 20
13.12145
 30
0.0
 10
-12.03286
 20
13.07246
 30
0.0
 10
-12.03286
 20
13.07246
 30
0.0
 10
-12.03322
 20
13.07075
 30
0.0
 10
-12.03417
 20
13.06921
 30
0.0
 10
-12.03451
 20
13.0675
 30
0.0
 10
-12.03451
 20
13.0675
 30
0.0
 10
-12.03462
 20
13.06697
 30
0.0
 10
-12.0344
 20
13.06638
 30
0.0
 10
-12.03451
 20
13.06585
 30
0.0
 10
-12.03451
 20
13.06585
 30
0.0
 10
-12.04392
 20
13.01891
 30
0.0
 10
-12.04857
 20
12.96993
 30
0.0
 10
-12.04939
 20
12.92033
 30
0.0
 10
-12.04939
 20
12.92033
 30
0.0
 10
-12.04943
 20
12.91587
 30
0.0
 10
-12.05022
 20
12.91161
 30
0.0
 10
-12.05022
 20
12.9071
 30
0.0
 10
-12.05022
 20
12.9071
 30
0.0
 10
-12.05022
 20
12.9071
 30
0.0
 10
-12.05022
 20
10.5581
 30
0.0
 10
-12.05022
 20
10.5581
 30
0.0
 10
-12.05022
 20
10.5581
 30
0.0
 10
-12.05022
 20
10.5581
 30
0.0
 10
-12.05022
 20
9.20624
 30
0.0
 10
-12.05022
 20
9.20624
 30
0.0
 10
-12.05022
 20
9.20624
 30
0.0
 10
-12.05022
 20
9.20624
 30
0.0
 10
-12.05022
 20
6.85641
 30
0.0
 10
-12.05022
 20
6.85641
 30
0.0
 10
-12.05022
 20
6.85641
 30
0.0
 10
-12.05022
 20
6.85218
 30
0.0
 10
-12.04943
 20
6.84819
 30
0.0
 10
-12.04939
 20
6.84401
 30
0.0
 10
-12.04939
 20
6.84401
 30
0.0
 10
-12.04855
 20
6.79357
 30
0.0
 10
-12.04422
 20
6.74371
 30
0.0
 10
-12.03451
 20
6.69601
 30
0.0
 10
-12.03451
 20
6.69601
 30
0.0
 10
-12.03446
 20
6.69575
 30
0.0
 10
-12.03456
 20
6.69544
 30
0.0
 10
-12.03451
 20
6.69518
 30
0.0
 10
-12.03451
 20
6.69518
 30
0.0
 10
-12.02393
 20
6.64348
 30
0.0
 10
-12.00822
 20
6.59382
 30
0.0
 10
-11.98821
 20
6.54635
 30
0.0
 10
-11.98821
 20
6.54635
 30
0.0
 10
-11.97815
 20
6.5225
 30
0.0
 10
-11.96407
 20
6.50114
 30
0.0
 10
-11.95183
 20
6.47855
 30
0.0
 10
-11.95183
 20
6.47855
 30
0.0
 10
-11.9319
 20
6.44186
 30
0.0
 10
-11.91011
 20
6.40644
 30
0.0
 10
-11.88486
 20
6.37354
 30
0.0
 10
-11.88486
 20
6.37354
 30
0.0
 10
-11.86755
 20
6.35096
 30
0.0
 10
-11.84988
 20
6.32879
 30
0.0
 10
-11.83029
 20
6.30822
 30
0.0
 10
-11.83029
 20
6.30822
 30
0.0
 10
-11.82377
 20
6.30122
 30
0.0
 10
-11.81723
 20
6.29428
 30
0.0
 10
-11.81045
 20
6.28755
 30
0.0
 10
-11.81045
 20
6.28755
 30
0.0
 10
-11.77626
 20
6.25416
 30
0.0
 10
-11.74026
 20
6.2226
 30
0.0
 10
-11.70048
 20
6.19577
 30
0.0
 10
-11.70048
 20
6.19577
 30
0.0
 10
-11.70029
 20
6.19564
 30
0.0
 10
-11.69984
 20
6.1959
 30
0.0
 10
-11.69965
 20
6.19577
 30
0.0
 10
-11.69965
 20
6.19577
 30
0.0
 10
-11.69851
 20
6.195
 30
0.0
 10
-11.69748
 20
6.19406
 30
0.0
 10
-11.69634
 20
6.19329
 30
0.0
 10
-11.69634
 20
6.19329
 30
0.0
 10
-11.6551
 20
6.16583
 30
0.0
 10
-11.61109
 20
6.1425
 30
0.0
 10
-11.56488
 20
6.12301
 30
0.0
 10
-11.56488
 20
6.12301
 30
0.0
 10
-11.51717
 20
6.10289
 30
0.0
 10
-11.4672
 20
6.08729
 30
0.0
 10
-11.41523
 20
6.07671
 30
0.0
 10
-11.41523
 20
6.07671
 30
0.0
 10
-11.36325
 20
6.06613
 30
0.0
 10
-11.30919
 20
6.06017
 30
0.0
 10
-11.254
 20
6.06017
 30
0.0
 10
-11.254
 20
6.06017
 30
0.0
 10
-11.254
 20
6.06017
 30
0.0
 10
-5.20414
 20
6.06017
 30
0.0
 10
-5.20414
 20
6.06017
 30
0.0
 10
-5.20414
 20
6.06017
 30
0.0
 10
-5.15604
 20
6.06017
 30
0.0
 10
-5.10929
 20
6.06613
 30
0.0
 10
-5.06358
 20
6.07423
 30
0.0
 10
-5.06358
 20
6.07423
 30
0.0
 10
-5.01399
 20
6.08298
 30
0.0
 10
-4.96648
 20
6.09736
 30
0.0
 10
-4.92054
 20
6.11474
 30
0.0
 10
-4.92054
 20
6.11474
 30
0.0
 10
-4.9117
 20
6.1181
 30
0.0
 10
-4.90194
 20
6.11935
 30
0.0
 10
-4.89325
 20
6.12301
 30
0.0
 10
-4.89325
 20
6.12301
 30
0.0
 10
-4.85769
 20
6.138
 30
0.0
 10
-4.82505
 20
6.15781
 30
0.0
 10
-4.79238
 20
6.17758
 30
0.0
 10
-4.79238
 20
6.17758
 30
0.0
 10
-4.77081
 20
6.19054
 30
0.0
 10
-4.74971
 20
6.20405
 30
0.0
 10
-4.72954
 20
6.21892
 30
0.0
 10
-4.72954
 20
6.21892
 30
0.0
 10
-4.70937
 20
6.23392
 30
0.0
 10
-4.69029
 20
6.25007
 30
0.0
 10
-4.67166
 20
6.26688
 30
0.0
 10
-4.67166
 20
6.26688
 30
0.0
 10
-4.64401
 20
6.29191
 30
0.0
 10
-4.61865
 20
6.3192
 30
0.0
 10
-4.59477
 20
6.34791
 30
0.0
 10
-4.59477
 20
6.34791
 30
0.0
 10
-4.58207
 20
6.3631
 30
0.0
 10
-4.56829
 20
6.37726
 30
0.0
 10
-4.55674
 20
6.39339
 30
0.0
 10
-4.55674
 20
6.39339
 30
0.0
 10
-4.52282
 20
6.44101
 30
0.0
 10
-4.49289
 20
6.49177
 30
0.0
 10
-4.46992
 20
6.54635
 30
0.0
 10
-4.46992
 20
6.54635
 30
0.0
 10
-4.44994
 20
6.59382
 30
0.0
 10
-4.43418
 20
6.64348
 30
0.0
 10
-4.42362
 20
6.69518
 30
0.0
 10
-4.42362
 20
6.69518
 30
0.0
 10
-4.42357
 20
6.69544
 30
0.0
 10
-4.42367
 20
6.69574
 30
0.0
 10
-4.42362
 20
6.69601
 30
0.0
 10
-4.42362
 20
6.69601
 30
0.0
 10
-4.41309
 20
6.74772
 30
0.0
 10
-4.40714
 20
6.80152
 30
0.0
 10
-4.40708
 20
6.85641
 30
0.0
 10
-4.40708
 20
6.85641
 30
0.0
 10
-4.40708
 20
6.85641
 30
0.0
 10
-4.40708
 20
9.20541
 30
0.0
 10
-4.40708
 20
9.20541
 30
0.0
 10
-4.40708
 20
9.20541
 30
0.0
 10
-4.40708
 20
9.20541
 30
0.0
 10
-4.40708
 20
10.55727
 30
0.0
 10
-4.40708
 20
10.55727
 30
0.0
 10
-4.40708
 20
10.55727
 30
0.0
 10
-4.40708
 20
10.55727
 30
0.0
 10
-4.40708
 20
12.90627
 30
0.0
 10
-4.40708
 20
12.90627
 30
0.0
 10
-4.40708
 20
12.90627
 30
0.0
 10
-4.40708
 20
12.90682
 30
0.0
 10
-4.40708
 20
12.90737
 30
0.0
 10
-4.40708
 20
12.90792
 30
0.0
 10
-4.40708
 20
12.90792
 30
0.0
 10
-4.40714
 20
12.96198
 30
0.0
 10
-4.4134
 20
13.01489
 30
0.0
 10
-4.42362
 20
13.06584
 30
0.0
 10
-4.42362
 20
13.06584
 30
0.0
 10
-4.42373
 20
13.06637
 30
0.0
 10
-4.42351
 20
13.06697
 30
0.0
 10
-4.42362
 20
13.06749
 30
0.0
 10
-4.42362
 20
13.06749
 30
0.0
 10
-4.42397
 20
13.0692
 30
0.0
 10
-4.42491
 20
13.07074
 30
0.0
 10
-4.42527
 20
13.07245
 30
0.0
 10
-4.42527
 20
13.07245
 30
0.0
 10
-4.43541
 20
13.12084
 30
0.0
 10
-4.44982
 20
13.16752
 30
0.0
 10
-4.46826
 20
13.21218
 30
0.0
 10
-4.46826
 20
13.21218
 30
0.0
 10
-4.46893
 20
13.21379
 30
0.0
 10
-4.46924
 20
13.21553
 30
0.0
 10
-4.46991
 20
13.21714
 30
0.0
 10
-4.46991
 20
13.21714
 30
0.0
 10
-4.47088
 20
13.21943
 30
0.0
 10
-4.47224
 20
13.22148
 30
0.0
 10
-4.47322
 20
13.22375
 30
0.0
 10
-4.47322
 20
13.22375
 30
0.0
 10
-4.48917
 20
13.26066
 30
0.0
 10
-4.50833
 20
13.29503
 30
0.0
 10
-4.52944
 20
13.32876
 30
0.0
 10
-4.52944
 20
13.32876
 30
0.0
 10
-4.53756
 20
13.34154
 30
0.0
 10
-4.54545
 20
13.35449
 30
0.0
 10
-4.55424
 20
13.36679
 30
0.0
 10
-4.55424
 20
13.36679
 30
0.0
 10
-4.57663
 20
13.39836
 30
0.0
 10
-4.60199
 20
13.42818
 30
0.0
 10
-4.62865
 20
13.45609
 30
0.0
 10
-4.62865
 20
13.45609
 30
0.0
 10
-4.63286
 20
13.46046
 30
0.0
 10
-4.63595
 20
13.46587
 30
0.0
 10
-4.64023
 20
13.47015
 30
0.0
 10
-4.64023
 20
13.47015
 30
0.0
 10
-4.64533
 20
13.47525
 30
0.0
 10
-4.65154
 20
13.47921
 30
0.0
 10
-4.65677
 20
13.48421
 30
0.0
 10
-4.65677
 20
13.48421
 30
0.0
 10
-4.68389
 20
13.50988
 30
0.0
 10
-4.71222
 20
13.53364
 30
0.0
 10
-4.74276
 20
13.55532
 30
0.0
 10
-4.74276
 20
13.55532
 30
0.0
 10
-4.75638
 20
13.56502
 30
0.0
 10
-4.7707
 20
13.57376
 30
0.0
 10
-4.78493
 20
13.58261
 30
0.0
 10
-4.78493
 20
13.58261
 30
0.0
 10
-4.81093
 20
13.59869
 30
0.0
 10
-4.83806
 20
13.61337
 30
0.0
 10
-4.86596
 20
13.62643
 30
0.0
 10
-4.86596
 20
13.62643
 30
0.0
 10
-4.88045
 20
13.63328
 30
0.0
 10
-4.89482
 20
13.6403
 30
0.0
 10
-4.90978
 20
13.64627
 30
0.0
 10
-4.90978
 20
13.64627
 30
0.0
 10
-4.94867
 20
13.66166
 30
0.0
 10
-4.98884
 20
13.67429
 30
0.0
 10
-5.0305
 20
13.68348
 30
0.0
 10
-5.0305
 20
13.68348
 30
0.0
 10
-5.0387
 20
13.6853
 30
0.0
 10
-5.04701
 20
13.68688
 30
0.0
 10
-5.0553
 20
13.68844
 30
0.0
 10
-5.0553
 20
13.68844
 30
0.0
 10
-5.10355
 20
13.69748
 30
0.0
 10
-5.15317
 20
13.70332
 30
0.0
 10
-5.20413
 20
13.70332
 30
0.0
 10
-5.20413
 20
13.70332
 30
0.0
 10
-5.20413
 20
13.70332
 30
0.0
 10
-7.55231
 20
13.70332
 30
0.0
 10
-7.55231
 20
13.70332
 30
0.0
 10
-7.55231
 20
13.70332
 30
0.0
 10
-7.55231
 20
13.70332
 30
0.0
 10
-8.90499
 20
13.70332
 30
0.0
 10
-8.90499
 20
13.70332
 30
0.0
 10
-8.90499
 20
13.70332
 30
0.0
 10
-8.90499
 20
13.70332
 30
0.0
 10
-11.25399
 20
13.70335
 30
0.0
 10
-11.25399
 20
13.70335
 30
0.0
  0
SPLINE
  5
8F
330
1F
100
AcDbEntity
  8
layer 1
 62
     7
370
    25
100
AcDbSpline
210
0.0
220
0.0
230
1.0
 70
    11
 71
     3
 72
   340
 73
   336
 74
     0
 42
0.000000001
 43
0.0000000001
 40
0.0
 40
0.0
 40
0.0
 40
0.0
 40
0.0117647058823529
 40
0.0117647058823529
 40
0.0117647058823529
 40
0.0117647058823529
 40
0.0235294117647059
 40
0.0235294117647059
 40
0.0235294117647059
 40
0.0235294117647059
 40
0.0352941176470588
 40
0.0352941176470588
 40
0.0352941176470588
 40
0.0352941176470588
 40
0.0470588235294118
 40
0.0470588235294118
 40
0.0470588235294118
 40
0.0470588235294118
 40
0.0588235294117647
 40
0.0588235294117647
 40
0.0588235294117647
 40
0.0588235294117647
 40
0.0705882352941176
 40
0.0705882352941176
 40
0.0705882352941176
 40
0.0705882352941176
 40
0.0823529411764706
 40
0.0823529411764706
 40
0.0823529411764706
 40
0.0823529411764706
 40
0.0941176470588235
 40
0.0941176470588235
 40
0.0941176470588235
 40
0.0941176470588235
 40
0.1058823529411765
 40
0.1058823529411765
 40
0.1058823529411765
 40
0.1058823529411765
 40
0.1176470588235294
 40
0.1176470588235294
 40
0.1176470588235294
 40
0.1176470588235294
 40
0.1294117647058824
 40
0.1294117647058824
 40
0.1294117647058824
 40
0.1294117647058824
 40
0.1411764705882353
 40
0.1411764705882353
 40
0.1411764705882353
 40
0.1411764705882353
 40
0.1529411764705882
 40
0.1529411764705882
 40
0.1529411764705882
 40
0.1529411764705882
 40
0.1647058823529412
 40
0.1647058823529412
 40
0.1647058823529412
 40
0.1647058823529412
 40
0.1764705882352941
 40
0.1764705882352941
 40
0.1764705882352941
 40
0.1764705882352941
 40
0.1882352941176471
 40
0.1882352941176471
 40
0.1882352941176471
 40
0.1882352941176471
 40
0.2
 40
0.2
 40
0.2
 40
0.2
 40
0.2117647058823529
 40
0.2117647058823529
 40
0.2117647058823529
 40
0.2117647058823529
 40
0.2235294117647059
 40
0.2235294117647059
 40
0.2235294117647059
 40
0.2235294117647059
 40
0.2352941176470588
 40
0.2352941176470588
 40
0.2352941176470588
 40
0.2352941176470588
 40
0.2470588235294118
 40
0.2470588235294118
 40
0.2470588235294118
 40
0.2470588235294118
 40
0.2588235294117647
 40
0.2588235294117647
 40
0.2588235294117647
 40
0.2588235294117647
 40
0.2705882352941176
 40
0.2705882352941176
 40
0.2705882352941176
 40
0.2705882352941176
 40
0.2823529411764706
 40
0.2823529411764706
 40
0.2823529411764706
 40
0.2823529411764706
 40
0.2941176470588235
 40
0.2941176470588235
 40
0.2941176470588235
 40
0.2941176470588235
 40
0.3058823529411765
 40
0.3058823529411765
 40
0.3058823529411765
 40
0.3058823529411765
 40
0.3176470588235294
 40
0.3176470588235294
 40
0.3176470588235294
 40
0.3176470588235294
 40
0.3294117647058823
 40
0.3294117647058823
 40
0.3294117647058823
 40
0.3294117647058823
 40
0.3411764705882353
 40
0.3411764705882353
 40
0.3411764705882353
 40
0.3411764705882353
 40
0.3529411764705883
 40
0.3529411764705883
 40
0.3529411764705883
 40
0.3529411764705883
 40
0.3647058823529412
 40
0.3647058823529412
 40
0.3647058823529412
 40
0.3647058823529412
 40
0.3764705882352941
 40
0.3764705882352941
 40
0.3764705882352941
 40
0.3764705882352941
 40
0.3882352941176471
 40
0.3882352941176471
 40
0.3882352941176471
 40
0.3882352941176471
 40
0.4
 40
0.4
 40
0.4
 40
0.4
 40
0.4117647058823529
 40
0.4117647058823529
 40
0.4117647058823529
 40
0.4117647058823529
 40
0.4235294117647059
 40
0.4235294117647059
 40
0.4235294117647059
 40
0.4235294117647059
 40
0.4352941176470588
 40
0.4352941176470588
 40
0.4352941176470588
 40
0.4352941176470588
 40
0.4470588235294118
 40
0.4470588235294118
 40
0.4470588235294118
 40
0.4470588235294118
 40
0.4588235294117647
 40
0.4588235294117647
 40
0.4588235294117647
 40
0.4588235294117647
 40
0.4705882352941176
 40
0.4705882352941176
 40
0.4705882352941176
 40
0.4705882352941176
 40
0.4823529411764706
 40
0.4823529411764706
 40
0.4823529411764706
 40
0.4823529411764706
 40
0.4941176470588236
 40
0.4941176470588236
 40
0.4941176470588236
 40
0.4941176470588236
 40
0.5058823529411764
 40
0.5058823529411764
 40
0.5058823529411764
 40
0.5058823529411764
 40
0.5176470588235295
 40
0.5176470588235295
 40
0.5176470588235295
 40
0.5176470588235295
 40
0.5294117647058824
 40
0.5294117647058824
 40
0.5294117647058824
 40
0.5294117647058824
 40
0.5411764705882353
 40
0.5411764705882353
 40
0.5411764705882353
 40
0.5411764705882353
 40
0.5529411764705883
 40
0.5529411764705883
 40
0.5529411764705883
 40
0.5529411764705883
 40
0.5647058823529412
 40
0.5647058823529412
 40
0.5647058823529412
 40
0.5647058823529412
 40
0.5764705882352941
 40
0.5764705882352941
 40
0.5764705882352941
 40
0.5764705882352941
 40
0.5882352941176471
 40
0.5882352941176471
 40
0.5882352941176471
 40
0.5882352941176471
 40
0.6
 40
0.6
 40
0.6
 40
0.6
 40
0.611764705882353
 40
0.611764705882353
 40
0.611764705882353
 40
0.611764705882353
 40
0.6235294117647059
 40
0.6235294117647059
 40
0.6235294117647059
 40
0.6235294117647059
 40
0.6352941176470588
 40
0.6352941176470588
 40
0.6352941176470588
 40
0.6352941176470588
 40
0.6470588235294118
 40
0.6470588235294118
 40
0.6470588235294118
 40
0.6470588235294118
 40
0.6588235294117647
 40
0.6588235294117647
 40
0.6588235294117647
 40
0.6588235294117647
 40
0.6705882352941176
 40
0.6705882352941176
 40
0.6705882352941176
 40
0.6705882352941176
 40
0.6823529411764706
 40
0.6823529411764706
 40
0.6823529411764706
 40
0.6823529411764706
 40
0.6941176470588235
 40
0.6941176470588235
 40
0.6941176470588235
 40
0.6941176470588235
 40
0.7058823529411765
 40
0.7058823529411765
 40
0.7058823529411765
 40
0.7058823529411765
 40
0.7176470588235294
 40
0.7176470588235294
 40
0.7176470588235294
 40
0.7176470588235294
 40
0.7294117647058823
 40
0.7294117647058823
 40
0.7294117647058823
 40
0.7294117647058823
 40
0.7411764705882353
 40
0.7411764705882353
 40
0.7411764705882353
 40
0.7411764705882353
 40
0.7529411764705882
 40
0.7529411764705882
 40
0.7529411764705882
 40
0.7529411764705882
 40
0.7647058823529411
 40
0.7647058823529411
 40
0.7647058823529411
 40
0.7647058823529411
 40
0.7764705882352941
 40
0.7764705882352941
 40
0.7764705882352941
 40
0.7764705882352941
 40
0.788235294117647
 40
0.788235294117647
 40
0.788235294117647
 40
0.788235294117647
 40
0.8
 40
0.8
 40
0.8
 40
0.8
 40
0.8117647058823529
 40
0.8117647058823529
 40
0.8117647058823529
 40
0.8117647058823529
 40
0.8235294117647058
 40
0.8235294117647058
 40
0.8235294117647058
 40
0.8235294117647058
 40
0.8352941176470589
 40
0.8352941176470589
 40
0.8352941176470589
 40
0.8352941176470589
 40
0.8470588235294118
 40
0.8470588235294118
 40
0.8470588235294118
 40
0.8470588235294118
 40
0.8588235294117647
 40
0.8588235294117647
 40
0.8588235294117647
 40
0.8588235294117647
 40
0.8705882352941177
 40
0.8705882352941177
 40
0.8705882352941177
 40
0.8705882352941177
 40
0.8823529411764706
 40
0.8823529411764706
 40
0.8823529411764706
 40
0.8823529411764706
 40
0.8941176470588236
 40
0.8941176470588236
 40
0.8941176470588236
 40
0.8941176470588236
 40
0.9058823529411765
 40
0.9058823529411765
 40
0.9058823529411765
 40
0.9058823529411765
 40
0.9176470588235294
 40
0.9176470588235294
 40
0.9176470588235294
 40
0.9176470588235294
 40
0.9294117647058824
 40
0.9294117647058824
 40
0.9294117647058824
 40
0.9294117647058824
 40
0.9411764705882353
 40
0.9411764705882353
 40
0.9411764705882353
 40
0.9411764705882353
 40
0.9529411764705882
 40
0.9529411764705882
 40
0.9529411764705882
 40
0.9529411764705882
 40
0.9647058823529412
 40
0.9647058823529412
 40
0.9647058823529412
 40
0.9647058823529412
 40
0.9764705882352941
 40
0.9764705882352941
 40
0.9764705882352941
 40
0.9764705882352941
 40
1.0
 40
1.0
 40
1.0
 40
1.0
 10
-19.0925
 20
13.70335
 30
0.0
 10
-19.14315
 20
13.70335
 30
0.0
 10
-19.19252
 20
13.69823
 30
0.0
 10
-19.2405
 20
13.68929
 30
0.0
 10
-19.2405
 20
13.68929
 30
0.0
 10
-19.24939
 20
13.68764
 30
0.0
 10
-19.25817
 20
13.68544
 30
0.0
 10
-19.26696
 20
13.6835
 30
0.0
 10
-19.26696
 20
13.6835
 30
0.0
 10
-19.31265
 20
13.67337
 30
0.0
 10
-19.35693
 20
13.65971
 30
0.0
 10
-19.39925
 20
13.64216
 30
0.0
 10
-19.39925
 20
13.64216
 30
0.0
 10
-19.4003
 20
13.64172
 30
0.0
 10
-19.4015
 20
13.64178
 30
0.0
 10
-19.40256
 20
13.64133
 30
0.0
 10
-19.40256
 20
13.64133
 30
0.0
 10
-19.40272
 20
13.64126
 30
0.0
 10
-19.40326
 20
13.6415
 30
0.0
 10
-19.40339
 20
13.64133
 30
0.0
 10
-19.40339
 20
13.64133
 30
0.0
 10
-19.40351
 20
13.64116
 30
0.0
 10
-19.40323
 20
13.64057
 30
0.0
 10
-19.40339
 20
13.6405
 30
0.0
 10
-19.40339
 20
13.6405
 30
0.0
 10
-19.40589
 20
13.63944
 30
0.0
 10
-19.40832
 20
13.63823
 30
0.0
 10
-19.41083
 20
13.63719
 30
0.0
 10
-19.41083
 20
13.63719
 30
0.0
 10
-19.43654
 20
13.62604
 30
0.0
 10
-19.46021
 20
13.61119
 30
0.0
 10
-19.48442
 20
13.5975
 30
0.0
 10
-19.48442
 20
13.5975
 30
0.0
 10
-19.50881
 20
13.58353
 30
0.0
 10
-19.53357
 20
13.57008
 30
0.0
 10
-19.55635
 20
13.55368
 30
0.0
 10
-19.55635
 20
13.55368
 30
0.0
 10
-19.58969
 20
13.52983
 30
0.0
 10
-19.62141
 20
13.50456
 30
0.0
 10
-19.65061
 20
13.47596
 30
0.0
 10
-19.65061
 20
13.47596
 30
0.0
 10
-19.65254
 20
13.47403
 30
0.0
 10
-19.65446
 20
13.47211
 30
0.0
 10
-19.6564
 20
13.47017
 30
0.0
 10
-19.6564
 20
13.47017
 30
0.0
 10
-19.65903
 20
13.46754
 30
0.0
 10
-19.66125
 20
13.46456
 30
0.0
 10
-19.66384
 20
13.4619
 30
0.0
 10
-19.66384
 20
13.4619
 30
0.0
 10
-19.69212
 20
13.43282
 30
0.0
 10
-19.71798
 20
13.40079
 30
0.0
 10
-19.74156
 20
13.36764
 30
0.0
 10
-19.74156
 20
13.36764
 30
0.0
 10
-19.75158
 20
13.35349
 30
0.0
 10
-19.76059
 20
13.33862
 30
0.0
 10
-19.76967
 20
13.32382
 30
0.0
 10
-19.76967
 20
13.32382
 30
0.0
 10
-19.78939
 20
13.29183
 30
0.0
 10
-19.80748
 20
13.25942
 30
0.0
 10
-19.82259
 20
13.2246
 30
0.0
 10
-19.82259
 20
13.2246
 30
0.0
 10
-19.82373
 20
13.22199
 30
0.0
 10
-19.82561
 20
13.21979
 30
0.0
 10
-19.82672
 20
13.21716
 30
0.0
 10
-19.82672
 20
13.21716
 30
0.0
 10
-19.82716
 20
13.21611
 30
0.0
 10
-19.82711
 20
13.2149
 30
0.0
 10
-19.82755
 20
13.21385
 30
0.0
 10
-19.82755
 20
13.21385
 30
0.0
 10
-19.84633
 20
13.16868
 30
0.0
 10
-19.8611
 20
13.12145
 30
0.0
 10
-19.87137
 20
13.07246
 30
0.0
 10
-19.87137
 20
13.07246
 30
0.0
 10
-19.87173
 20
13.07075
 30
0.0
 10
-19.87268
 20
13.06921
 30
0.0
 10
-19.87302
 20
13.0675
 30
0.0
 10
-19.87302
 20
13.0675
 30
0.0
 10
-19.87313
 20
13.06697
 30
0.0
 10
-19.87291
 20
13.06638
 30
0.0
 10
-19.87302
 20
13.06585
 30
0.0
 10
-19.87302
 20
13.06585
 30
0.0
 10
-19.88243
 20
13.01891
 30
0.0
 10
-19.88708
 20
12.96993
 30
0.0
 10
-19.8879
 20
12.92033
 30
0.0
 10
-19.8879
 20
12.92033
 30
0.0
 10
-19.88794
 20
12.91587
 30
0.0
 10
-19.88873
 20
12.91161
 30
0.0
 10
-19.88873
 20
12.9071
 30
0.0
 10
-19.88873
 20
12.9071
 30
0.0
 10
-19.88873
 20
12.9071
 30
0.0
 10
-19.88873
 20
10.5581
 30
0.0
 10
-19.88873
 20
10.5581
 30
0.0
 10
-19.88873
 20
10.5581
 30
0.0
 10
-19.88873
 20
10.5581
 30
0.0
 10
-19.60926
 20
10.5581
 30
0.0
 10
-19.60926
 20
10.5581
 30
0.0
 10
-19.60926
 20
10.5581
 30
0.0
 10
-19.60926
 20
10.5581
 30
0.0
 10
-19.60926
 20
9.20624
 30
0.0
 10
-19.60926
 20
9.20624
 30
0.0
 10
-19.60926
 20
9.20624
 30
0.0
 10
-19.60926
 20
9.20624
 30
0.0
 10
-19.88873
 20
9.20624
 30
0.0
 10
-19.88873
 20
9.20624
 30
0.0
 10
-19.88873
 20
9.20624
 30
0.0
 10
-19.88873
 20
9.20624
 30
0.0
 10
-19.88873
 20
6.85641
 30
0.0
 10
-19.88873
 20
6.85641
 30
0.0
 10
-19.88873
 20
6.85641
 30
0.0
 10
-19.88873
 20
6.85218
 30
0.0
 10
-19.88794
 20
6.84819
 30
0.0
 10
-19.8879
 20
6.84401
 30
0.0
 10
-19.8879
 20
6.84401
 30
0.0
 10
-19.88706
 20
6.79357
 30
0.0
 10
-19.88273
 20
6.74371
 30
0.0
 10
-19.87302
 20
6.69601
 30
0.0
 10
-19.87302
 20
6.69601
 30
0.0
 10
-19.87297
 20
6.69575
 30
0.0
 10
-19.87307
 20
6.69544
 30
0.0
 10
-19.87302
 20
6.69518
 30
0.0
 10
-19.87302
 20
6.69518
 30
0.0
 10
-19.86244
 20
6.64348
 30
0.0
 10
-19.84673
 20
6.59382
 30
0.0
 10
-19.82672
 20
6.54635
 30
0.0
 10
-19.82672
 20
6.54635
 30
0.0
 10
-19.81666
 20
6.5225
 30
0.0
 10
-19.80258
 20
6.50114
 30
0.0
 10
-19.79034
 20
6.47855
 30
0.0
 10
-19.79034
 20
6.47855
 30
0.0
 10
-19.77041
 20
6.44186
 30
0.0
 10
-19.74862
 20
6.40644
 30
0.0
 10
-19.72337
 20
6.37354
 30
0.0
 10
-19.72337
 20
6.37354
 30
0.0
 10
-19.70606
 20
6.35096
 30
0.0
 10
-19.68839
 20
6.32879
 30
0.0
 10
-19.6688
 20
6.30822
 30
0.0
 10
-19.6688
 20
6.30822
 30
0.0
 10
-19.66228
 20
6.30122
 30
0.0
 10
-19.65574
 20
6.29428
 30
0.0
 10
-19.64896
 20
6.28755
 30
0.0
 10
-19.64896
 20
6.28755
 30
0.0
 10
-19.61477
 20
6.25416
 30
0.0
 10
-19.57877
 20
6.2226
 30
0.0
 10
-19.53899
 20
6.19577
 30
0.0
 10
-19.53899
 20
6.19577
 30
0.0
 10
-19.5388
 20
6.19564
 30
0.0
 10
-19.53835
 20
6.1959
 30
0.0
 10
-19.53816
 20
6.19577
 30
0.0
 10
-19.53816
 20
6.19577
 30
0.0
 10
-19.53702
 20
6.195
 30
0.0
 10
-19.53599
 20
6.19406
 30
0.0
 10
-19.53485
 20
6.19329
 30
0.0
 10
-19.53485
 20
6.19329
 30
0.0
 10
-19.49361
 20
6.16583
 30
0.0
 10
-19.4496
 20
6.1425
 30
0.0
 10
-19.40339
 20
6.12301
 30
0.0
 10
-19.40339
 20
6.12301
 30
0.0
 10
-19.35568
 20
6.10289
 30
0.0
 10
-19.30571
 20
6.08729
 30
0.0
 10
-19.25374
 20
6.07671
 30
0.0
 10
-19.25374
 20
6.07671
 30
0.0
 10
-19.20176
 20
6.06613
 30
0.0
 10
-19.1477
 20
6.06017
 30
0.0
 10
-19.09251
 20
6.06017
 30
0.0
 10
-19.09251
 20
6.06017
 30
0.0
 10
-19.09251
 20
6.06017
 30
0.0
 10
-13.04265
 20
6.06017
 30
0.0
 10
-13.04265
 20
6.06017
 30
0.0
 10
-13.04265
 20
6.06017
 30
0.0
 10
-12.99455
 20
6.06017
 30
0.0
 10
-12.9478
 20
6.06613
 30
0.0
 10
-12.90209
 20
6.07423
 30
0.0
 10
-12.90209
 20
6.07423
 30
0.0
 10
-12.8525
 20
6.08298
 30
0.0
 10
-12.80499
 20
6.09736
 30
0.0
 10
-12.75905
 20
6.11474
 30
0.0
 10
-12.75905
 20
6.11474
 30
0.0
 10
-12.75021
 20
6.1181
 30
0.0
 10
-12.74045
 20
6.11935
 30
0.0
 10
-12.73176
 20
6.12301
 30
0.0
 10
-12.73176
 20
6.12301
 30
0.0
 10
-12.6962
 20
6.138
 30
0.0
 10
-12.66356
 20
6.15781
 30
0.0
 10
-12.63089
 20
6.17758
 30
0.0
 10
-12.63089
 20
6.17758
 30
0.0
 10
-12.60932
 20
6.19054
 30
0.0
 10
-12.58822
 20
6.20405
 30
0.0
 10
-12.56805
 20
6.21892
 30
0.0
 10
-12.56805
 20
6.21892
 30
0.0
 10
-12.54788
 20
6.23392
 30
0.0
 10
-12.5288
 20
6.25007
 30
0.0
 10
-12.51017
 20
6.26688
 30
0.0
 10
-12.51017
 20
6.26688
 30
0.0
 10
-12.48252
 20
6.29191
 30
0.0
 10
-12.45716
 20
6.3192
 30
0.0
 10
-12.43328
 20
6.34791
 30
0.0
 10
-12.43328
 20
6.34791
 30
0.0
 10
-12.42058
 20
6.3631
 30
0.0
 10
-12.4068
 20
6.37726
 30
0.0
 10
-12.39525
 20
6.39339
 30
0.0
 10
-12.39525
 20
6.39339
 30
0.0
 10
-12.36133
 20
6.44101
 30
0.0
 10
-12.3314
 20
6.49177
 30
0.0
 10
-12.30843
 20
6.54635
 30
0.0
 10
-12.30843
 20
6.54635
 30
0.0
 10
-12.28845
 20
6.59382
 30
0.0
 10
-12.27269
 20
6.64348
 30
0.0
 10
-12.26213
 20
6.69518
 30
0.0
 10
-12.26213
 20
6.69518
 30
0.0
 10
-12.26208
 20
6.69544
 30
0.0
 10
-12.26218
 20
6.69574
 30
0.0
 10
-12.26213
 20
6.69601
 30
0.0
 10
-12.26213
 20
6.69601
 30
0.0
 10
-12.2516
 20
6.74772
 30
0.0
 10
-12.24565
 20
6.80152
 30
0.0
 10
-12.24559
 20
6.85641
 30
0.0
 10
-12.24559
 20
6.85641
 30
0.0
 10
-12.24559
 20
6.85641
 30
0.0
 10
-12.24559
 20
9.20541
 30
0.0
 10
-12.24559
 20
9.20541
 30
0.0
 10
-12.24559
 20
9.20541
 30
0.0
 10
-12.24559
 20
9.20541
 30
0.0
 10
-12.52588
 20
9.20541
 30
0.0
 10
-12.52588
 20
9.20541
 30
0.0
 10
-12.52588
 20
9.20541
 30
0.0
 10
-12.52588
 20
9.20541
 30
0.0
 10
-12.52588
 20
10.55727
 30
0.0
 10
-12.52588
 20
10.55727
 30
0.0
 10
-12.52588
 20
10.55727
 30
0.0
 10
-12.52588
 20
10.55727
 30
0.0
 10
-12.24559
 20
10.55727
 30
0.0
 10
-12.24559
 20
10.55727
 30
0.0
 10
-12.24559
 20
10.55727
 30
0.0
 10
-12.24559
 20
10.55727
 30
0.0
 10
-12.24559
 20
12.90627
 30
0.0
 10
-12.24559
 20
12.90627
 30
0.0
 10
-12.24559
 20
12.90627
 30
0.0
 10
-12.24559
 20
12.90682
 30
0.0
 10
-12.24559
 20
12.90737
 30
0.0
 10
-12.24559
 20
12.90792
 30
0.0
 10
-12.24559
 20
12.90792
 30
0.0
 10
-12.24565
 20
12.96198
 30
0.0
 10
-12.25191
 20
13.01489
 30
0.0
 10
-12.26213
 20
13.06584
 30
0.0
 10
-12.26213
 20
13.06584
 30
0.0
 10
-12.26224
 20
13.06637
 30
0.0
 10
-12.26202
 20
13.06697
 30
0.0
 10
-12.26213
 20
13.06749
 30
0.0
 10
-12.26213
 20
13.06749
 30
0.0
 10
-12.26248
 20
13.0692
 30
0.0
 10
-12.26342
 20
13.07074
 30
0.0
 10
-12.26378
 20
13.07245
 30
0.0
 10
-12.26378
 20
13.07245
 30
0.0
 10
-12.27392
 20
13.12084
 30
0.0
 10
-12.28833
 20
13.16752
 30
0.0
 10
-12.30677
 20
13.21218
 30
0.0
 10
-12.30677
 20
13.21218
 30
0.0
 10
-12.30744
 20
13.21379
 30
0.0
 10
-12.30775
 20
13.21553
 30
0.0
 10
-12.30842
 20
13.21714
 30
0.0
 10
-12.30842
 20
13.21714
 30
0.0
 10
-12.30939
 20
13.21943
 30
0.0
 10
-12.31075
 20
13.22148
 30
0.0
 10
-12.31173
 20
13.22375
 30
0.0
 10
-12.31173
 20
13.22375
 30
0.0
 10
-12.32768
 20
13.26066
 30
0.0
 10
-12.34684
 20
13.29503
 30
0.0
 10
-12.36795
 20
13.32876
 30
0.0
 10
-12.36795
 20
13.32876
 30
0.0
 10
-12.37607
 20
13.34154
 30
0.0
 10
-12.38396
 20
13.35449
 30
0.0
 10
-12.39275
 20
13.36679
 30
0.0
 10
-12.39275
 20
13.36679
 30
0.0
 10
-12.41514
 20
13.39836
 30
0.0
 10
-12.4405
 20
13.42818
 30
0.0
 10
-12.46716
 20
13.45609
 30
0.0
 10
-12.46716
 20
13.45609
 30
0.0
 10
-12.47137
 20
13.46046
 30
0.0
 10
-12.47446
 20
13.46587
 30
0.0
 10
-12.47874
 20
13.47015
 30
0.0
 10
-12.47874
 20
13.47015
 30
0.0
 10
-12.48384
 20
13.47525
 30
0.0
 10
-12.49005
 20
13.47921
 30
0.0
 10
-12.49528
 20
13.48421
 30
0.0
 10
-12.49528
 20
13.48421
 30
0.0
 10
-12.5224
 20
13.50988
 30
0.0
 10
-12.55073
 20
13.53364
 30
0.0
 10
-12.58127
 20
13.55532
 30
0.0
 10
-12.58127
 20
13.55532
 30
0.0
 10
-12.59489
 20
13.56502
 30
0.0
 10
-12.60921
 20
13.57376
 30
0.0
 10
-12.62344
 20
13.58261
 30
0.0
 10
-12.62344
 20
13.58261
 30
0.0
 10
-12.64944
 20
13.59869
 30
0.0
 10
-12.67657
 20
13.61337
 30
0.0
 10
-12.70447
 20
13.62643
 30
0.0
 10
-12.70447
 20
13.62643
 30
0.0
 10
-12.71896
 20
13.63328
 30
0.0
 10
-12.73333
 20
13.6403
 30
0.0
 10
-12.74829
 20
13.64627
 30
0.0
 10
-12.74829
 20
13.64627
 30
0.0
 10
-12.78718
 20
13.66166
 30
0.0
 10
-12.82735
 20
13.67429
 30
0.0
 10
-12.86901
 20
13.68348
 30
0.0
 10
-12.86901
 20
13.68348
 30
0.0
 10
-12.87721
 20
13.6853
 30
0.0
 10
-12.88552
 20
13.68688
 30
0.0
 10
-12.89381
 20
13.68844
 30
0.0
 10
-12.89381
 20
13.68844
 30
0.0
 10
-12.94206
 20
13.69748
 30
0.0
 10
-12.99168
 20
13.70332
 30
0.0
 10
-13.04264
 20
13.70332
 30
0.0
 10
-13.04264
 20
13.70332
 30
0.0
 10
-13.04264
 20
13.70332
 30
0.0
 10
-15.39082
 20
13.70332
 30
0.0
 10
-15.39082
 20
13.70332
 30
0.0
 10
-15.39082
 20
13.70332
 30
0.0
 10
-15.39082
 20
13.70332
 30
0.0
 10
-15.39082
 20
13.42303
 30
0.0
 10
-15.39082
 20
13.42303
 30
0.0
 10
-15.39082
 20
13.42303
 30
0.0
 10
-15.39082
 20
13.42303
 30
0.0
 10
-16.7435
 20
13.42303
 30
0.0
 10
-16.7435
 20
13.42303
 30
0.0
 10
-16.7435
 20
13.42303
 30
0.0
 10
-16.7435
 20
13.42303
 30
0.0
 10
-16.7435
 20
13.70332
 30
0.0
 10
-16.7435
 20
13.70332
 30
0.0
 10
-16.7435
 20
13.70332
 30
0.0
 10
-16.7435
 20
13.70332
 30
0.0
 10
-19.0925
 20
13.70332
 30
0.0
 10
-19.0925
 20
13.70332
 30
0.0
 10
-19.0925
 20
13.70332
 30
0.0
 10
-19.0925
 20
13.70332
 30
0.0
 10
-19.0925
 20
13.70335
 30
0.0
 10
-19.0925
 20
13.70335
 30
0.0
  0
SPLINE
  5
90
330
1F
100
AcDbEntity
  8
layer 1
 62
     7
370
    25
100
AcDbSpline
210
0.0
220
0.0
230
1.0
 70
    11
 71
     3
 72
    20
 73
    16
 74
     0
 42
0.000000001
 43
0.0000000001
 40
0.0
 40
0.0
 40
0.0
 40
0.0
 40
0.2
 40
0.2
 40
0.2
 40
0.2
 40
0.4
 40
0.4
 40
0.4
 40
0.4
 40
0.6
 40
0.6
 40
0.6
 40
0.6
 40
1.0
 40
1.0
 40
1.0
 40
1.0
 10
-18.33122
 20
12.6849
 30
0.0
 10
-18.33122
 20
12.38718
 30
0.0
 10
-18.57257
 20
12.14584
 30
0.0
 10
-18.87028
 20
12.14584
 30
0.0
 10
-18.87028
 20
12.14584
 30
0.0
 10
-19.168
 20
12.14584
 30
0.0
 10
-19.40934
 20
12.38719
 30
0.0
 10
-19.40934
 20
12.6849
 30
0.0
 10
-19.40934
 20
12.6849
 30
0.0
 10
-19.40934
 20
12.98262
 30
0.0
 10
-19.16799
 20
13.22396
 30
0.0
 10
-18.87028
 20
13.22396
 30
0.0
 10
-18.87028
 20
13.22396
 30
0.0
 10
-18.57256
 20
13.22396
 30
0.0
 10
-18.33122
 20
12.98261
 30
0.0
 10
-18.33122
 20
12.6849
 30
0.0
  0
SPLINE
  5
91
330
1F
100
AcDbEntity
  8
layer 1
 62
     7
370
    25
100
AcDbSpline
210
0.0
220
0.0
230
1.0
 70
    11
 71
     3
 72
    20
 73
    16
 74
     0
 42
0.000000001
 43
0.0000000001
 40
0.0
 40
0.0
 40
0.0
 40
0.0
 40
0.2
 40
0.2
 40
0.2
 40
0.2
 40
0.4
 40
0.4
 40
0.4
 40
0.4
 40
0.6
 40
0.6
 40
0.6
 40
0.6
 40
1.0
 40
1.0
 40
1.0
 40
1.0
 10
-18.33122
 20
12.6849
 30
0.0
 10
-18.33122
 20
12.38718
 30
0.0
 10
-18.57257
 20
12.14584
 30
0.0
 10
-18.87028
 20
12.14584
 30
0.0
 10
-18.87028
 20
12.14584
 30
0.0
 10
-19.168
 20
12.14584
 30
0.0
 10
-19.40934
 20
12.38719
 30
0.0
 10
-19.40934
 20
12.6849
 30
0.0
 10
-19.40934
 20
12.6849
 30
0.0
 10
-19.40934
 20
12.98262
 30
0.0
 10
-19.16799
 20
13.22396
 30
0.0
 10
-18.87028
 20
13.22396
 30
0.0
 10
-18.87028
 20
13.22396
 30
0.0
 10
-18.57256
 20
13.22396
 30
0.0
 10
-18.33122
 20
12.98261
 30
0.0
 10
-18.33122
 20
12.6849
 30
0.0
  0
SPLINE
  5
92
330
1F
100
AcDbEntity
  8
layer 1
 62
     7
370
    25
100
AcDbSpline
210
0.0
220
0.0
230
1.0
 70
    11
 71
     3
 72
    20
 73
    16
 74
     0
 42
0.000000001
 43
0.0000000001
 40
0.0
 40
0.0
 40
0.0
 40
0.0
 40
0.2
 40
0.2
 40
0.2
 40
0.2
 40
0.4
 40
0.4
 40
0.4
 40
0.4
 40
0.6
 40
0.6
 40
0.6
 40
0.6
 40
1.0
 40
1.0
 40
1.0
 40
1.0
 10
-18.33122
 20
11.28334
 30
0.0
 10
-18.33122
 20
10.98562
 30
0.0
 10
-18.57257
 20
10.74428
 30
0.0
 10
-18.87028
 20
10.74428
 30
0.0
 10
-18.87028
 20
10.74428
 30
0.0
 10
-19.168
 20
10.74428
 30
0.0
 10
-19.40934
 20
10.98563
 30
0.0
 10
-19.40934
 20
11.28334
 30
0.0
 10
-19.40934
 20
11.28334
 30
0.0
 10
-19.40934
 20
11.58106
 30
0.0
 10
-19.16799
 20
11.8224
 30
0.0
 10
-18.87028
 20
11.8224
 30
0.0
 10
-18.87028
 20
11.8224
 30
0.0
 10
-18.57256
 20
11.8224
 30
0.0
 10
-18.33122
 20
11.58105
 30
0.0
 10
-18.33122
 20
11.28334
 30
0.0
  0
SPLINE
  5
93
330
1F
100
AcDbEntity
  8
layer 1
 62
     7
370
    25
100
AcDbSpline
210
0.0
220
0.0
230
1.0
 70
    11
 71
     3
 72
    20
 73
    16
 74
     0
 42
0.000000001
 43
0.0000000001
 40
0.0
 40
0.0
 40
0.0
 40
0.0
 40
0.2
 40
0.2
 40
0.2
 40
0.2
 40
0.4
 40
0.4
 40
0.4
 40
0.4
 40
0.6
 40
0.6
 40
0.6
 40
0.6
 40
1.0
 40
1.0
 40
1.0
 40
1.0
 10
-18.33122
 20
9.88177
 30
0.0
 10
-18.33122
 20
9.58405
 30
0.0
 10
-18.57257
 20
9.34271
 30
0.0
 10
-18.87028
 20
9.34271
 30
0.0
 10
-18.87028
 20
9.34271
 30
0.0
 10
-19.168
 20
9.34271
 30
0.0
 10
-19.40934
 20
9.58406
 30
0.0
 10
-19.40934
 20
9.88177
 30
0.0
 10
-19.40934
 20
9.88177
 30
0.0
 10
-19.40934
 20
10.17949
 30
0.0
 10
-19.16799
 20
10.42083
 30
0.0
 10
-18.87028
 20
10.42083
 30
0.0
 10
-18.87028
 20
10.42083
 30
0.0
 10
-18.57256
 20
10.42083
 30
0.0
 10
-18.33122
 20
10.17948
 30
0.0
 10
-18.33122
 20
9.88177
 30
0.0
  0
SPLINE
  5
94
330
1F
100
AcDbEntity
  8
layer 1
 62
     7
370
    25
100
AcDbSpline
210
0.0
220
0.0
230
1.0
 70
    11
 71
     3
 72
    20
 73
    16
 74
     0
 42
0.000000001
 43
0.0000000001
 40
0.0
 40
0.0
 40
0.0
 40
0.0
 40
0.2
 40
0.2
 40
0.2
 40
0.2
 40
0.4
 40
0.4
 40
0.4
 40
0.4
 40
0.6
 40
0.6
 40
0.6
 40
0.6
 40
1.0
 40
1.0
 40
1.0
 40
1.0
 10
-18.33122
 20
8.48021
 30
0.0
 10
-18.33122
 20
8.18249
 30
0.0
 10
-18.57257
 20
7.94115
 30
0.0
 10
-18.87028
 20
7.94115
 30
0.0
 10
-18.87028
 20
7.94115
 30
0.0
 10
-19.168
 20
7.94115
 30
0.0
 10
-19.40934
 20
8.1825
 30
0.0
 10
-19.40934
 20
8.48021
 30
0.0
 10
-19.40934
 20
8.48021
 30
0.0
 10
-19.40934
 20
8.77793
 30
0.0
 10
-19.16799
 20
9.01927
 30
0.0
 10
-18.87028
 20
9.01927
 30
0.0
 10
-18.87028
 20
9.01927
 30
0.0
 10
-18.57256
 20
9.01927
 30
0.0
 10
-18.33122
 20
8.77792
 30
0.0
 10
-18.33122
 20
8.48021
 30
0.0
  0
SPLINE
  5
95
330
1F
100
AcDbEntity
  8
layer 1
 62
     7
370
    25
100
AcDbSpline
210
0.0
220
0.0
230
1.0
 70
    11
 71
     3
 72
    20
 73
    16
 74
     0
 42
0.000000001
 43
0.0000000001
 40
0.0
 40
0.0
 40
0.0
 40
0.0
 40
0.2
 40
0.2
 40
0.2
 40
0.2
 40
0.4
 40
0.4
 40
0.4
 40
0.4
 40
0.6
 40
0.6
 40
0.6
 40
0.6
 40
1.0
 40
1.0
 40
1.0
 40
1.0
 10
-18.33122
 20
7.07865
 30
0.0
 10
-18.33122
 20
6.78093
 30
0.0
 10
-18.57257
 20
6.53959
 30
0.0
 10
-18.87028
 20
6.53959
 30
0.0
 10
-18.87028
 20
6.53959
 30
0.0
 10
-19.168
 20
6.53959
 30
0.0
 10
-19.40934
 20
6.78094
 30
0.0
 10
-19.40934
 20
7.07865
 30
0.0
 10
-19.40934
 20
7.07865
 30
0.0
 10
-19.40934
 20
7.37637
 30
0.0
 10
-19.16799
 20
7.61771
 30
0.0
 10
-18.87028
 20
7.61771
 30
0.0
 10
-18.87028
 20
7.61771
 30
0.0
 10
-18.57256
 20
7.61771
 30
0.0
 10
-18.33122
 20
7.37636
 30
0.0
 10
-18.33122
 20
7.07865
 30
0.0
  0
SPLINE
  5
96
330
1F
100
AcDbEntity
  8
layer 1
 62
     7
370
    25
100
AcDbSpline
210
0.0
220
0.0
230
1.0
 70
    11
 71
     3
 72
    20
 73
    16
 74
     0
 42
0.000000001
 43
0.0000000001
 40
0.0
 40
0.0
 40
0.0
 40
0.0
 40
0.2
 40
0.2
 40
0.2
 40
0.2
 40
0.4
 40
0.4
 40
0.4
 40
0.4
 40
0.6
 40
0.6
 40
0.6
 40
0.6
 40
1.0
 40
1.0
 40
1.0
 40
1.0
 10
-16.92965
 20
12.6849
 30
0.0
 10
-16.92965
 20
12.38718
 30
0.0
 10
-17.171
 20
12.14584
 30
0.0
 10
-17.46871
 20
12.14584
 30
0.0
 10
-17.46871
 20
12.14584
 30
0.0
 10
-17.76643
 20
12.14584
 30
0.0
 10
-18.00777
 20
12.38719
 30
0.0
 10
-18.00777
 20
12.6849
 30
0.0
 10
-18.00777
 20
12.6849
 30
0.0
 10
-18.00777
 20
12.98262
 30
0.0
 10
-17.76642
 20
13.22396
 30
0.0
 10
-17.46871
 20
13.22396
 30
0.0
 10
-17.46871
 20
13.22396
 30
0.0
 10
-17.17099
 20
13.22396
 30
0.0
 10
-16.92965
 20
12.98261
 30
0.0
 10
-16.92965
 20
12.6849
 30
0.0
  0
SPLINE
  5
97
330
1F
100
AcDbEntity
  8
layer 1
 62
     7
370
    25
100
AcDbSpline
210
0.0
220
0.0
230
1.0
 70
    11
 71
     3
 72
    20
 73
    16
 74
     0
 42
0.000000001
 43
0.0000000001
 40
0.0
 40
0.0
 40
0.0
 40
0.0
 40
0.2
 40
0.2
 40
0.2
 40
0.2
 40
0.4
 40
0.4
 40
0.4
 40
0.4
 40
0.6
 40
0.6
 40
0.6
 40
0.6
 40
1.0
 40
1.0
 40
1.0
 40
1.0
 10
-16.92965
 20
11.28334
 30
0.0
 10
-16.92965
 20
10.98562
 30
0.0
 10
-17.171
 20
10.74428
 30
0.0
 10
-17.46871
 20
10.74428
 30
0.0
 10
-17.46871
 20
10.74428
 30
0.0
 10
-17.76643
 20
10.74428
 30
0.0
 10
-18.00777
 20
10.98563
 30
0.0
 10
-18.00777
 20
11.28334
 30
0.0
 10
-18.00777
 20
11.28334
 30
0.0
 10
-18.00777
 20
11.58106
 30
0.0
 10
-17.76642
 20
11.8224
 30
0.0
 10
-17.46871
 20
11.8224
 30
0.0
 10
-17.46871
 20
11.8224
 30
0.0
 10
-17.17099
 20
11.8224
 30
0.0
 10
-16.92965
 20
11.58105
 30
0.0
 10
-16.92965
 20
11.28334
 30
0.0
  0
SPLINE
  5
98
330
1F
100
AcDbEntity
  8
layer 1
 62
     7
370
    25
100
AcDbSpline
210
0.0
220
0.0
230
1.0
 70
    11
 71
     3
 72
    20
 73
    16
 74
     0
 42
0.000000001
 43
0.0000000001
 40
0.0
 40
0.0
 40
0.0
 40
0.0
 40
0.2
 40
0.2
 40
0.2
 40
0.2
 40
0.4
 40
0.4
 40
0.4
 40
0.4
 40
0.6
 40
0.6
 40
0.6
 40
0.6
 40
1.0
 40
1.0
 40
1.0
 40
1.0
 10
-16.92965
 20
9.88177
 30
0.0
 10
-16.92965
 20
9.58405
 30
0.0
 10
-17.171
 20
9.34271
 30
0.0
 10
-17.46871
 20
9.34271
 30
0.0
 10
-17.46871
 20
9.34271
 30
0.0
 10
-17.76643
 20
9.34271
 30
0.0
 10
-18.00777
 20
9.58406
 30
0.0
 10
-18.00777
 20
9.88177
 30
0.0
 10
-18.00777
 20
9.88177
 30
0.0
 10
-18.00777
 20
10.17949
 30
0.0
 10
-17.76642
 20
10.42083
 30
0.0
 10
-17.46871
 20
10.42083
 30
0.0
 10
-17.46871
 20
10.42083
 30
0.0
 10
-17.17099
 20
10.42083
 30
0.0
 10
-16.92965
 20
10.17948
 30
0.0
 10
-16.92965
 20
9.88177
 30
0.0
  0
SPLINE
  5
99
330
1F
100
AcDbEntity
  8
layer 1
 62
     7
370
    25
100
AcDbSpline
210
0.0
220
0.0
230
1.0
 70
    11
 71
     3
 72
    20
 73
    16
 74
     0
 42
0.000000001
 43
0.0000000001
 40
0.0
 40
0.0
 40
0.0
 40
0.0
 40
0.2
 40
0.2
 40
0.2
 40
0.2
 40
0.4
 40
0.4
 40
0.4
 40
0.4
 40
0.6
 40
0.6
 40
0.6
 40
0.6
 40
1.0
 40
1.0
 40
1.0
 40
1.0
 10
-16.92965
 20
8.48021
 30
0.0
 10
-16.92965
 20
8.18249
 30
0.0
 10
-17.171
 20
7.94115
 30
0.0
 10
-17.46871
 20
7.94115
 30
0.0
 10
-17.46871
 20
7.94115
 30
0.0
 10
-17.76643
 20
7.94115
 30
0.0
 10
-18.00777
 20
8.1825
 30
0.0
 10
-18.00777
 20
8.48021
 30
0.0
 10
-18.00777
 20
8.48021
 30
0.0
 10
-18.00777
 20
8.77793
 30
0.0
 10
-17.76642
 20
9.01927
 30
0.0
 10
-17.46871
 20
9.01927
 30
0.0
 10
-17.46871
 20
9.01927
 30
0.0
 10
-17.17099
 20
9.01927
 30
0.0
 10
-16.92965
 20
8.77792
 30
0.0
 10
-16.92965
 20
8.48021
 30
0.0
  0
SPLINE
  5
9A
330
1F
100
AcDbEntity
  8
layer 1
 62
     7
370
    25
100
AcDbSpline
210
0.0
220
0.0
230
1.0
 70
    11
 71
     3
 72
    20
 73
    16
 74
     0
 42
0.000000001
 43
0.0000000001
 40
0.0
 40
0.0
 40
0.0
 40
0.0
 40
0.2
 40
0.2
 40
0.2
 40
0.2
 40
0.4
 40
0.4
 40
0.4
 40
0.4
 40
0.6
 40
0.6
 40
0.6
 40
0.6
 40
1.0
 40
1.0
 40
1.0
 40
1.0
 10
-16.92965
 20
7.07865
 30
0.0
 10
-16.92965
 20
6.78093
 30
0.0
 10
-17.171
 20
6.53959
 30
0.0
 10
-17.46871
 20
6.53959
 30
0.0
 10
-17.46871
 20
6.53959
 30
0.0
 10
-17.76643
 20
6.53959
 30
0.0
 10
-18.00777
 20
6.78094
 30
0.0
 10
-18.00777
 20
7.07865
 30
0.0
 10
-18.00777
 20
7.07865
 30
0.0
 10
-18.00777
 20
7.37637
 30
0.0
 10
-17.76642
 20
7.61771
 30
0.0
 10
-17.46871
 20
7.61771
 30
0.0
 10
-17.46871
 20
7.61771
 30
0.0
 10
-17.17099
 20
7.61771
 30
0.0
 10
-16.92965
 20
7.37636
 30
0.0
 10
-16.92965
 20
7.07865
 30
0.0
  0
SPLINE
  5
9B
330
1F
100
AcDbEntity
  8
layer 1
 62
     7
370
    25
100
AcDbSpline
210
0.0
220
0.0
230
1.0
 70
    11
 71
     3
 72
    20
 73
    16
 74
     0
 42
0.000000001
 43
0.0000000001
 40
0.0
 40
0.0
 40
0.0
 40
0.0
 40
0.2
 40
0.2
 40
0.2
 40
0.2
 40
0.4
 40
0.4
 40
0.4
 40
0.4
 40
0.6
 40
0.6
 40
0.6
 40
0.6
 40
1.0
 40
1.0
 40
1.0
 40
1.0
 10
-15.52809
 20
12.6849
 30
0.0
 10
-15.52809
 20
12.38718
 30
0.0
 10
-15.76944
 20
12.14584
 30
0.0
 10
-16.06715
 20
12.14584
 30
0.0
 10
-16.06715
 20
12.14584
 30
0.0
 10
-16.36487
 20
12.14584
 30
0.0
 10
-16.60621
 20
12.38719
 30
0.0
 10
-16.60621
 20
12.6849
 30
0.0
 10
-16.60621
 20
12.6849
 30
0.0
 10
-16.60621
 20
12.98262
 30
0.0
 10
-16.36486
 20
13.22396
 30
0.0
 10
-16.06715
 20
13.22396
 30
0.0
 10
-16.06715
 20
13.22396
 30
0.0
 10
-15.76943
 20
13.22396
 30
0.0
 10
-15.52809
 20
12.98261
 30
0.0
 10
-15.52809
 20
12.6849
 30
0.0
  0
SPLINE
  5
9C
330
1F
100
AcDbEntity
  8
layer 1
 62
     7
370
    25
100
AcDbSpline
210
0.0
220
0.0
230
1.0
 70
    11
 71
     3
 72
    20
 73
    16
 74
     0
 42
0.000000001
 43
0.0000000001
 40
0.0
 40
0.0
 40
0.0
 40
0.0
 40
0.2
 40
0.2
 40
0.2
 40
0.2
 40
0.4
 40
0.4
 40
0.4
 40
0.4
 40
0.6
 40
0.6
 40
0.6
 40
0.6
 40
1.0
 40
1.0
 40
1.0
 40
1.0
 10
-15.52809
 20
11.28334
 30
0.0
 10
-15.52809
 20
10.98562
 30
0.0
 10
-15.76944
 20
10.74428
 30
0.0
 10
-16.06715
 20
10.74428
 30
0.0
 10
-16.06715
 20
10.74428
 30
0.0
 10
-16.36487
 20
10.74428
 30
0.0
 10
-16.60621
 20
10.98563
 30
0.0
 10
-16.60621
 20
11.28334
 30
0.0
 10
-16.60621
 20
11.28334
 30
0.0
 10
-16.60621
 20
11.58106
 30
0.0
 10
-16.36486
 20
11.8224
 30
0.0
 10
-16.06715
 20
11.8224
 30
0.0
 10
-16.06715
 20
11.8224
 30
0.0
 10
-15.76943
 20
11.8224
 30
0.0
 10
-15.52809
 20
11.58105
 30
0.0
 10
-15.52809
 20
11.28334
 30
0.0
  0
SPLINE
  5
9D
330
1F
100
AcDbEntity
  8
layer 1
 62
     7
370
    25
100
AcDbSpline
210
0.0
220
0.0
230
1.0
 70
    11
 71
     3
 72
    20
 73
    16
 74
     0
 42
0.000000001
 43
0.0000000001
 40
0.0
 40
0.0
 40
0.0
 40
0.0
 40
0.2
 40
0.2
 40
0.2
 40
0.2
 40
0.4
 40
0.4
 40
0.4
 40
0.4
 40
0.6
 40
0.6
 40
0.6
 40
0.6
 40
1.0
 40
1.0
 40
1.0
 40
1.0
 10
-15.52809
 20
9.88177
 30
0.0
 10
-15.52809
 20
9.58405
 30
0.0
 10
-15.76944
 20
9.34271
 30
0.0
 10
-16.06715
 20
9.34271
 30
0.0
 10
-16.06715
 20
9.34271
 30
0.0
 10
-16.36487
 20
9.34271
 30
0.0
 10
-16.60621
 20
9.58406
 30
0.0
 10
-16.60621
 20
9.88177
 30
0.0
 10
-16.60621
 20
9.88177
 30
0.0
 10
-16.60621
 20
10.17949
 30
0.0
 10
-16.36486
 20
10.42083
 30
0.0
 10
-16.06715
 20
10.42083
 30
0.0
 10
-16.06715
 20
10.42083
 30
0.0
 10
-15.76943
 20
10.42083
 30
0.0
 10
-15.52809
 20
10.17948
 30
0.0
 10
-15.52809
 20
9.88177
 30
0.0
  0
SPLINE
  5
9E
330
1F
100
AcDbEntity
  8
layer 1
 62
     7
370
    25
100
AcDbSpline
210
0.0
220
0.0
230
1.0
 70
    11
 71
     3
 72
    20
 73
    16
 74
     0
 42
0.000000001
 43
0.0000000001
 40
0.0
 40
0.0
 40
0.0
 40
0.0
 40
0.2
 40
0.2
 40
0.2
 40
0.2
 40
0.4
 40
0.4
 40
0.4
 40
0.4
 40
0.6
 40
0.6
 40
0.6
 40
0.6
 40
1.0
 40
1.0
 40
1.0
 40
1.0
 10
-15.52809
 20
8.48021
 30
0.0
 10
-15.52809
 20
8.18249
 30
0.0
 10
-15.76944
 20
7.94115
 30
0.0
 10
-16.06715
 20
7.94115
 30
0.0
 10
-16.06715
 20
7.94115
 30
0.0
 10
-16.36487
 20
7.94115
 30
0.0
 10
-16.60621
 20
8.1825
 30
0.0
 10
-16.60621
 20
8.48021
 30
0.0
 10
-16.60621
 20
8.48021
 30
0.0
 10
-16.60621
 20
8.77793
 30
0.0
 10
-16.36486
 20
9.01927
 30
0.0
 10
-16.06715
 20
9.01927
 30
0.0
 10
-16.06715
 20
9.01927
 30
0.0
 10
-15.76943
 20
9.01927
 30
0.0
 10
-15.52809
 20
8.77792
 30
0.0
 10
-15.52809
 20
8.48021
 30
0.0
  0
SPLINE
  5
9F
330
1F
100
AcDbEntity
  8
layer 1
 62
     7
370
    25
100
AcDbSpline
210
0.0
220
0.0
230
1.0
 70
    11
 71
     3
 72
    20
 73
    16
 74
     0
 42
0.000000001
 43
0.0000000001
 40
0.0
 40
0.0
 40
0.0
 40
0.0
 40
0.2
 40
0.2
 40
0.2
 40
0.2
 40
0.4
 40
0.4
 40
0.4
 40
0.4
 40
0.6
 40
0.6
 40
0.6
 40
0.6
 40
1.0
 40
1.0
 40
1.0
 40
1.0
 10
-15.52809
 20
7.07865
 30
0.0
 10
-15.52809
 20
6.78093
 30
0.0
 10
-15.76944
 20
6.53959
 30
0.0
 10
-16.06715
 20
6.53959
 30
0.0
 10
-16.06715
 20
6.53959
 30
0.0
 10
-16.36487
 20
6.53959
 30
0.0
 10
-16.60621
 20
6.78094
 30
0.0
 10
-16.60621
 20
7.07865
 30
0.0
 10
-16.60621
 20
7.07865
 30
0.0
 10
-16.60621
 20
7.37637
 30
0.0
 10
-16.36486
 20
7.61771
 30
0.0
 10
-16.06715
 20
7.61771
 30
0.0
 10
-16.06715
 20
7.61771
 30
0.0
 10
-15.76943
 20
7.61771
 30
0.0
 10
-15.52809
 20
7.37636
 30
0.0
 10
-15.52809
 20
7.07865
 30
0.0
  0
SPLINE
  5
A0
330
1F
100
AcDbEntity
  8
layer 1
 62
     7
370
    25
100
AcDbSpline
210
0.0
220
0.0
230
1.0
 70
    11
 71
     3
 72
    20
 73
    16
 74
     0
 42
0.000000001
 43
0.0000000001
 40
0.0
 40
0.0
 40
0.0
 40
0.0
 40
0.2
 40
0.2
 40
0.2
 40
0.2
 40
0.4
 40
0.4
 40
0.4
 40
0.4
 40
0.6
 40
0.6
 40
0.6
 40
0.6
 40
1.0
 40
1.0
 40
1.0
 40
1.0
 10
-14.12653
 20
12.6849
 30
0.0
 10
-14.12653
 20
12.38718
 30
0.0
 10
-14.36788
 20
12.14584
 30
0.0
 10
-14.66559
 20
12.14584
 30
0.0
 10
-14.66559
 20
12.14584
 30
0.0
 10
-14.96331
 20
12.14584
 30
0.0
 10
-15.20465
 20
12.38719
 30
0.0
 10
-15.20465
 20
12.6849
 30
0.0
 10
-15.20465
 20
12.6849
 30
0.0
 10
-15.20465
 20
12.98262
 30
0.0
 10
-14.9633
 20
13.22396
 30
0.0
 10
-14.66559
 20
13.22396
 30
0.0
 10
-14.66559
 20
13.22396
 30
0.0
 10
-14.36787
 20
13.22396
 30
0.0
 10
-14.12653
 20
12.98261
 30
0.0
 10
-14.12653
 20
12.6849
 30
0.0
  0
SPLINE
  5
A1
330
1F
100
AcDbEntity
  8
layer 1
 62
     7
370
    25
100
AcDbSpline
210
0.0
220
0.0
230
1.0
 70
    11
 71
     3
 72
    20
 73
    16
 74
     0
 42
0.000000001
 43
0.0000000001
 40
0.0
 40
0.0
 40
0.0
 40
0.0
 40
0.2
 40
0.2
 40
0.2
 40
0.2
 40
0.4
 40
0.4
 40
0.4
 40
0.4
 40
0.6
 40
0.6
 40
0.6
 40
0.6
 40
1.0
 40
1.0
 40
1.0
 40
1.0
 10
-14.12653
 20
11.28334
 30
0.0
 10
-14.12653
 20
10.98562
 30
0.0
 10
-14.36788
 20
10.74428
 30
0.0
 10
-14.66559
 20
10.74428
 30
0.0
 10
-14.66559
 20
10.74428
 30
0.0
 10
-14.96331
 20
10.74428
 30
0.0
 10
-15.20465
 20
10.98563
 30
0.0
 10
-15.20465
 20
11.28334
 30
0.0
 10
-15.20465
 20
11.28334
 30
0.0
 10
-15.20465
 20
11.58106
 30
0.0
 10
-14.9633
 20
11.8224
 30
0.0
 10
-14.66559
 20
11.8224
 30
0.0
 10
-14.66559
 20
11.8224
 30
0.0
 10
-14.36787
 20
11.8224
 30
0.0
 10
-14.12653
 20
11.58105
 30
0.0
 10
-14.12653
 20
11.28334
 30
0.0
  0
SPLINE
  5
A2
330
1F
100
AcDbEntity
  8
layer 1
 62
     7
370
    25
100
AcDbSpline
210
0.0
220
0.0
230
1.0
 70
    11
 71
     3
 72
    20
 73
    16
 74
     0
 42
0.000000001
 43
0.0000000001
 40
0.0
 40
0.0
 40
0.0
 40
0.0
 40
0.2
 40
0.2
 40
0.2
 40
0.2
 40
0.4
 40
0.4
 40
0.4
 40
0.4
 40
0.6
 40
0.6
 40
0.6
 40
0.6
 40
1.0
 40
1.0
 40
1.0
 40
1.0
 10
-14.12653
 20
9.88177
 30
0.0
 10
-14.12653
 20
9.58405
 30
0.0
 10
-14.36788
 20
9.34271
 30
0.0
 10
-14.66559
 20
9.34271
 30
0.0
 10
-14.66559
 20
9.34271
 30
0.0
 10
-14.96331
 20
9.34271
 30
0.0
 10
-15.20465
 20
9.58406
 30
0.0
 10
-15.20465
 20
9.88177
 30
0.0
 10
-15.20465
 20
9.88177
 30
0.0
 10
-15.20465
 20
10.17949
 30
0.0
 10
-14.9633
 20
10.42083
 30
0.0
 10
-14.66559
 20
10.42083
 30
0.0
 10
-14.66559
 20
10.42083
 30
0.0
 10
-14.36787
 20
10.42083
 30
0.0
 10
-14.12653
 20
10.17948
 30
0.0
 10
-14.12653
 20
9.88177
 30
0.0
  0
SPLINE
  5
A3
330
1F
100
AcDbEntity
  8
layer 1
 62
     7
370
    25
100
AcDbSpline
210
0.0
220
0.0
230
1.0
 70
    11
 71
     3
 72
    20
 73
    16
 74
     0
 42
0.000000001
 43
0.0000000001
 40
0.0
 40
0.0
 40
0.0
 40
0.0
 40
0.2
 40
0.2
 40
0.2
 40
0.2
 40
0.4
 40
0.4
 40
0.4
 40
0.4
 40
0.6
 40
0.6
 40
0.6
 40
0.6
 40
1.0
 40
1.0
 40
1.0
 40
1.0
 10
-14.12653
 20
8.48021
 30
0.0
 10
-14.12653
 20
8.18249
 30
0.0
 10
-14.36788
 20
7.94115
 30
0.0
 10
-14.66559
 20
7.94115
 30
0.0
 10
-14.66559
 20
7.94115
 30
0.0
 10
-14.96331
 20
7.94115
 30
0.0
 10
-15.20465
 20
8.1825
 30
0.0
 10
-15.20465
 20
8.48021
 30
0.0
 10
-15.20465
 20
8.48021
 30
0.0
 10
-15.20465
 20
8.77793
 30
0.0
 10
-14.9633
 20
9.01927
 30
0.0
 10
-14.66559
 20
9.01927
 30
0.0
 10
-14.66559
 20
9.01927
 30
0.0
 10
-14.36787
 20
9.01927
 30
0.0
 10
-14.12653
 20
8.77792
 30
0.0
 10
-14.12653
 20
8.48021
 30
0.0
  0
SPLINE
  5
A4
330
1F
100
AcDbEntity
  8
layer 1
 62
     7
370
    25
100
AcDbSpline
210
0.0
220
0.0
230
1.0
 70
    11
 71
     3
 72
    20
 73
    16
 74
     0
 42
0.000000001
 43
0.0000000001
 40
0.0
 40
0.0
 40
0.0
 40
0.0
 40
0.2
 40
0.2
 40
0.2
 40
0.2
 40
0.4
 40
0.4
 40
0.4
 40
0.4
 40
0.6
 40
0.6
 40
0.6
 40
0.6
 40
1.0
 40
1.0
 40
1.0
 40
1.0
 10
-14.12653
 20
7.07865
 30
0.0
 10
-14.12653
 20
6.78093
 30
0.0
 10
-14.36788
 20
6.53959
 30
0.0
 10
-14.66559
 20
6.53959
 30
0.0
 10
-14.66559
 20
6.53959
 30
0.0
 10
-14.96331
 20
6.53959
 30
0.0
 10
-15.20465
 20
6.78094
 30
0.0
 10
-15.20465
 20
7.07865
 30
0.0
 10
-15.20465
 20
7.07865
 30
0.0
 10
-15.20465
 20
7.37637
 30
0.0
 10
-14.9633
 20
7.61771
 30
0.0
 10
-14.66559
 20
7.61771
 30
0.0
 10
-14.66559
 20
7.61771
 30
0.0
 10
-14.36787
 20
7.61771
 30
0.0
 10
-14.12653
 20
7.37636
 30
0.0
 10
-14.12653
 20
7.07865
 30
0.0
  0
SPLINE
  5
A5
330
1F
100
AcDbEntity
  8
layer 1
 62
     7
370
    25
100
AcDbSpline
210
0.0
220
0.0
230
1.0
 70
    11
 71
     3
 72
    20
 73
    16
 74
     0
 42
0.000000001
 43
0.0000000001
 40
0.0
 40
0.0
 40
0.0
 40
0.0
 40
0.2
 40
0.2
 40
0.2
 40
0.2
 40
0.4
 40
0.4
 40
0.4
 40
0.4
 40
0.6
 40
0.6
 40
0.6
 40
0.6
 40
1.0
 40
1.0
 40
1.0
 40
1.0
 10
-12.72497
 20
12.6849
 30
0.0
 10
-12.72497
 20
12.38718
 30
0.0
 10
-12.96632
 20
12.14584
 30
0.0
 10
-13.26403
 20
12.14584
 30
0.0
 10
-13.26403
 20
12.14584
 30
0.0
 10
-13.56175
 20
12.14584
 30
0.0
 10
-13.80309
 20
12.38719
 30
0.0
 10
-13.80309
 20
12.6849
 30
0.0
 10
-13.80309
 20
12.6849
 30
0.0
 10
-13.80309
 20
12.98262
 30
0.0
 10
-13.56174
 20
13.22396
 30
0.0
 10
-13.26403
 20
13.22396
 30
0.0
 10
-13.26403
 20
13.22396
 30
0.0
 10
-12.96631
 20
13.22396
 30
0.0
 10
-12.72497
 20
12.98261
 30
0.0
 10
-12.72497
 20
12.6849
 30
0.0
  0
SPLINE
  5
A6
330
1F
100
AcDbEntity
  8
layer 1
 62
     7
370
    25
100
AcDbSpline
210
0.0
220
0.0
230
1.0
 70
    11
 71
     3
 72
    20
 73
    16
 74
     0
 42
0.000000001
 43
0.0000000001
 40
0.0
 40
0.0
 40
0.0
 40
0.0
 40
0.2
 40
0.2
 40
0.2
 40
0.2
 40
0.4
 40
0.4
 40
0.4
 40
0.4
 40
0.6
 40
0.6
 40
0.6
 40
0.6
 40
1.0
 40
1.0
 40
1.0
 40
1.0
 10
-12.72497
 20
11.28334
 30
0.0
 10
-12.72497
 20
10.98562
 30
0.0
 10
-12.96632
 20
10.74428
 30
0.0
 10
-13.26403
 20
10.74428
 30
0.0
 10
-13.26403
 20
10.74428
 30
0.0
 10
-13.56175
 20
10.74428
 30
0.0
 10
-13.80309
 20
10.98563
 30
0.0
 10
-13.80309
 20
11.28334
 30
0.0
 10
-13.80309
 20
11.28334
 30
0.0
 10
-13.80309
 20
11.58106
 30
0.0
 10
-13.56174
 20
11.8224
 30
0.0
 10
-13.26403
 20
11.8224
 30
0.0
 10
-13.26403
 20
11.8224
 30
0.0
 10
-12.96631
 20
11.8224
 30
0.0
 10
-12.72497
 20
11.58105
 30
0.0
 10
-12.72497
 20
11.28334
 30
0.0
  0
SPLINE
  5
A7
330
1F
100
AcDbEntity
  8
layer 1
 62
     7
370
    25
100
AcDbSpline
210
0.0
220
0.0
230
1.0
 70
    11
 71
     3
 72
    20
 73
    16
 74
     0
 42
0.000000001
 43
0.0000000001
 40
0.0
 40
0.0
 40
0.0
 40
0.0
 40
0.2
 40
0.2
 40
0.2
 40
0.2
 40
0.4
 40
0.4
 40
0.4
 40
0.4
 40
0.6
 40
0.6
 40
0.6
 40
0.6
 40
1.0
 40
1.0
 40
1.0
 40
1.0
 10
-12.72497
 20
9.88177
 30
0.0
 10
-12.72497
 20
9.58405
 30
0.0
 10
-12.96632
 20
9.34271
 30
0.0
 10
-13.26403
 20
9.34271
 30
0.0
 10
-13.26403
 20
9.34271
 30
0.0
 10
-13.56175
 20
9.34271
 30
0.0
 10
-13.80309
 20
9.58406
 30
0.0
 10
-13.80309
 20
9.88177
 30
0.0
 10
-13.80309
 20
9.88177
 30
0.0
 10
-13.80309
 20
10.17949
 30
0.0
 10
-13.56174
 20
10.42083
 30
0.0
 10
-13.26403
 20
10.42083
 30
0.0
 10
-13.26403
 20
10.42083
 30
0.0
 10
-12.96631
 20
10.42083
 30
0.0
 10
-12.72497
 20
10.17948
 30
0.0
 10
-12.72497
 20
9.88177
 30
0.0
  0
SPLINE
  5
A8
330
1F
100
AcDbEntity
  8
layer 1
 62
     7
370
    25
100
AcDbSpline
210
0.0
220
0.0
230
1.0
 70
    11
 71
     3
 72
    20
 73
    16
 74
     0
 42
0.000000001
 43
0.0000000001
 40
0.0
 40
0.0
 40
0.0
 40
0.0
 40
0.2
 40
0.2
 40
0.2
 40
0.2
 40
0.4
 40
0.4
 40
0.4
 40
0.4
 40
0.6
 40
0.6
 40
0.6
 40
0.6
 40
1.0
 40
1.0
 40
1.0
 40
1.0
 10
-12.72497
 20
8.48021
 30
0.0
 10
-12.72497
 20
8.18249
 30
0.0
 10
-12.96632
 20
7.94115
 30
0.0
 10
-13.26403
 20
7.94115
 30
0.0
 10
-13.26403
 20
7.94115
 30
0.0
 10
-13.56175
 20
7.94115
 30
0.0
 10
-13.80309
 20
8.1825
 30
0.0
 10
-13.80309
 20
8.48021
 30
0.0
 10
-13.80309
 20
8.48021
 30
0.0
 10
-13.80309
 20
8.77793
 30
0.0
 10
-13.56174
 20
9.01927
 30
0.0
 10
-13.26403
 20
9.01927
 30
0.0
 10
-13.26403
 20
9.01927
 30
0.0
 10
-12.96631
 20
9.01927
 30
0.0
 10
-12.72497
 20
8.77792
 30
0.0
 10
-12.72497
 20
8.48021
 30
0.0
  0
SPLINE
  5
A9
330
1F
100
AcDbEntity
  8
layer 1
 62
     7
370
    25
100
AcDbSpline
210
0.0
220
0.0
230
1.0
 70
    11
 71
     3
 72
    20
 73
    16
 74
     0
 42
0.000000001
 43
0.0000000001
 40
0.0
 40
0.0
 40
0.0
 40
0.0
 40
0.2
 40
0.2
 40
0.2
 40
0.2
 40
0.4
 40
0.4
 40
0.4
 40
0.4
 40
0.6
 40
0.6
 40
0.6
 40
0.6
 40
1.0
 40
1.0
 40
1.0
 40
1.0
 10
-12.72497
 20
7.07865
 30
0.0
 10
-12.72497
 20
6.78093
 30
0.0
 10
-12.96632
 20
6.53959
 30
0.0
 10
-13.26403
 20
6.53959
 30
0.0
 10
-13.26403
 20
6.53959
 30
0.0
 10
-13.56175
 20
6.53959
 30
0.0
 10
-13.80309
 20
6.78094
 30
0.0
 10
-13.80309
 20
7.07865
 30
0.0
 10
-13.80309
 20
7.07865
 30
0.0
 10
-13.80309
 20
7.37637
 30
0.0
 10
-13.56174
 20
7.61771
 30
0.0
 10
-13.26403
 20
7.61771
 30
0.0
 10
-13.26403
 20
7.61771
 30
0.0
 10
-12.96631
 20
7.61771
 30
0.0
 10
-12.72497
 20
7.37636
 30
0.0
 10
-12.72497
 20
7.07865
 30
0.0
  0
ENDSEC
  0
SECTION
  2
OBJECTS
  0
DICTIONARY
  5
C
330
0
100
AcDbDictionary
281
     1
  3
ACAD_DETAILVIEWSTYLE
350
E5
  3
ACAD_GROUP
350
D
  3
ACAD_LAYOUT
350
1A
  3
ACAD_MATERIAL
350
43
  3
ACAD_MLEADERSTYLE
350
6B
  3
ACAD_MLINESTYLE
350
17
  3
ACAD_PLOTSETTINGS
350
19
  3
ACAD_PLOTSTYLENAME
350
E
  3
ACAD_SCALELIST
350
47
  3
ACAD_SECTIONVIEWSTYLE
350
E6
  3
ACAD_TABLESTYLE
350
69
  3
ACAD_VISUALSTYLE
350
2A
  3
ACDB_RECOMPOSE_DATA
350
E2
  3
AcDbVariableDictionary
350
AA
  0
SUN
  5
6D
330
29
100
AcDbSun
 90
        1
290
     0
 63
     7
421
 16777215
 40
1.0
291
     1
 91
  2455826
 92
 54000000
292
     0
 70
     2
 71
   256
280
     1
  0
DICTIONARY
  5
E5
102
{ACAD_REACTORS
330
C
102
}
330
C
100
AcDbDictionary
281
     1
  0
DICTIONARY
  5
D
102
{ACAD_REACTORS
330
C
102
}
330
C
100
AcDbDictionary
281
     1
  0
DICTIONARY
  5
1A
102
{ACAD_REACTORS
330
C
102
}
330
C
100
AcDbDictionary
281
     1
  3
Layout1
350
1E
  3
Layout2
350
26
  3
Model
350
22
  0
DICTIONARY
  5
43
102
{ACAD_REACTORS
330
C
102
}
330
C
100
AcDbDictionary
281
     1
  3
ByBlock
350
45
  3
ByLayer
350
44
  3
Global
350
46
  0
DICTIONARY
  5
6B
102
{ACAD_REACTORS
330
C
102
}
330
C
100
AcDbDictionary
281
     1
  3
Standard
350
6C
  0
DICTIONARY
  5
17
102
{ACAD_REACTORS
330
C
102
}
330
C
100
AcDbDictionary
281
     1
  3
Standard
350
18
  0
DICTIONARY
  5
19
102
{ACAD_REACTORS
330
C
102
}
330
C
100
AcDbDictionary
281
     1
  0
ACDBDICTIONARYWDFLT
  5
E
102
{ACAD_REACTORS
330
C
102
}
330
C
100
AcDbDictionary
281
     1
  3
Normal
350
F
100
AcDbDictionaryWithDefault
340
F
  0
DICTIONARY
  5
47
102
{ACAD_REACTORS
330
C
102
}
330
C
100
AcDbDictionary
281
     1
  3
A0
350
48
  3
A1
350
49
  3
A2
350
4A
  3
A3
350
4B
  3
A4
350
4C
  3
A5
350
4D
  3
A6
350
4E
  3
A7
350
4F
  3
A8
350
50
  3
A9
350
51
  3
B0
350
52
  3
B1
350
53
  3
B2
350
54
  3
B3
350
55
  3
B4
350
56
  3
B5
350
57
  3
B6
350
58
  3
B7
350
59
  3
B8
350
5A
  3
B9
350
5B
  3
C0
350
5C
  3
C1
350
5D
  3
C2
350
5E
  3
C3
350
5F
  3
C4
350
60
  3
C5
350
61
  3
C6
350
62
  3
C7
350
63
  3
C8
350
64
  3
C9
350
65
  3
D0
350
66
  3
D1
350
67
  3
D2
350
68
  0
DICTIONARY
  5
E6
102
{ACAD_REACTORS
330
C
102
}
330
C
100
AcDbDictionary
281
     1
  0
DICTIONARY
  5
69
102
{ACAD_REACTORS
330
C
102
}
330
C
100
AcDbDictionary
281
     1
  3
Standard
350
6A
  0
DICTIONARY
  5
2A
102
{ACAD_REACTORS
330
C
102
}
330
C
100
AcDbDictionary
281
     1
  3
2dWireframe
350
2F
  3
Basic
350
32
  3
Brighten
350
36
  3
ColorChange
350
3A
  3
Conceptual
350
34
  3
Dim
350
35
  3
EdgeColorOff
350
3D
  3
Facepattern
350
39
  3
Flat
350
2B
  3
FlatWithEdges
350
2C
  3
Gouraud
350
2D
  3
GouraudWithEdges
350
2E
  3
Hidden
350
31
  3
JitterOff
350
3B
  3
Linepattern
350
38
  3
OverhangOff
350
3C
  3
Realistic
350
33
  3
Shaded
350
42
  3
Shaded with edges
350
41
  3
Shades of Gray
350
3E
  3
Sketchy
350
3F
  3
Thicken
350
37
  3
Wireframe
350
30
  3
X-Ray
350
40
  0
XRECORD
  5
E2
102
{ACAD_REACTORS
330
C
102
}
330
C
100
AcDbXrecord
280
     1
 90
        1
330
6A
  0
DICTIONARY
  5
AA
102
{ACAD_REACTORS
330
C
102
}
330
C
100
AcDbDictionary
281
     1
  3
CANNOSCALE
350
AB
  3
CMLEADERSTYLE
350
E4
  3
CTABLESTYLE
350
E3
  3
XCLIPFRAME
350
AC
  0
LAYOUT
  5
1E
102
{ACAD_REACTORS
330
1A
102
}
330
1A
100
AcDbPlotSettings
  1

  2
none_device
  4

  6

 40
0.0
 41
0.0
 42
0.0
 43
0.0
 44
0.0
 45
0.0
 46
0.0
 47
0.0
 48
0.0
 49
0.0
140
0.0
141
0.0
142
1.0
143
1.0
 70
   688
 72
     0
 73
     0
 74
     5
  7

 75
    16
 76
     0
 77
     2
 78
   300
147
1.0
148
0.0
149
0.0
100
AcDbLayout
  1
Layout1
 70
     1
 71
     1
 10
0.0
 20
0.0
 11
12.0
 21
9.0
 12
0.0
 22
0.0
 32
0.0
 14
1.000000000000000E+20
 24
1.000000000000000E+20
 34
1.000000000000000E+20
 15
-1.000000000000000E+20
 25
-1.000000000000000E+20
 35
-1.000000000000000E+20
146
0.0
 13
0.0
 23
0.0
 33
0.0
 16
1.0
 26
0.0
 36
0.0
 17
0.0
 27
1.0
 37
0.0
 76
     0
330
1B
  0
LAYOUT
  5
26
102
{ACAD_REACTORS
330
1A
102
}
330
1A
100
AcDbPlotSettings
  1

  2
none_device
  4

  6

 40
0.0
 41
0.0
 42
0.0
 43
0.0
 44
0.0
 45
0.0
 46
0.0
 47
0.0
 48
0.0
 49
0.0
140
0.0
141
0.0
142
1.0
143
1.0
 70
   688
 72
     0
 73
     0
 74
     5
  7

 75
    16
 76
     0
 77
     2
 78
   300
147
1.0
148
0.0
149
0.0
100
AcDbLayout
  1
Layout2
 70
     1
 71
     2
 10
0.0
 20
0.0
 11
0.0
 21
0.0
 12
0.0
 22
0.0
 32
0.0
 14
0.0
 24
0.0
 34
0.0
 15
0.0
 25
0.0
 35
0.0
146
0.0
 13
0.0
 23
0.0
 33
0.0
 16
1.0
 26
0.0
 36
0.0
 17
0.0
 27
1.0
 37
0.0
 76
     0
330
23
  0
LAYOUT
  5
22
102
{ACAD_REACTORS
330
1A
102
}
330
1A
100
AcDbPlotSettings
  1

  2
none_device
  4
Letter_(8.50_x_11.00_Inches)
  6

 40
6.35
 41
6.35
 42
6.35000508
 43
6.35000508
 44
215.9
 45
279.4
 46
0.0
 47
0.0
 48
0.0
 49
0.0
140
0.0
141
0.0
142
1.0
143
1.0
 70
  1712
 72
     0
 73
     0
 74
     0
  7

 75
     0
 76
     0
 77
     2
 78
   300
147
1.0
148
0.0
149
0.0
100
AcDbLayout
  1
Model
 70
     1
 71
     0
 10
0.0
 20
0.0
 11
12.0
 21
9.0
 12
0.0
 22
0.0
 32
0.0
 14
-27.74047
 24
6.04694
 34
0.0
 15
-1.69284
 25
13.71658
 35
0.0
146
0.0
 13
0.0
 23
0.0
 33
0.0
 16
1.0
 26
0.0
 36
0.0
 17
0.0
 27
1.0
 37
0.0
 76
     0
330
1F
331
29
  0
MATERIAL
  5
45
102
{ACAD_REACTORS
330
43
102
}
330
43
100
AcDbMaterial
  1
ByBlock
 72
     1
 94
      127
  0
MATERIAL
  5
44
102
{ACAD_REACTORS
330
43
102
}
330
43
100
AcDbMaterial
  1
ByLayer
 72
     1
 94
      127
  0
MATERIAL
  5
46
102
{ACAD_REACTORS
330
43
102
}
330
43
100
AcDbMaterial
  1
Global
 72
     1
 94
      127
  0
MLEADERSTYLE
  5
6C
102
{ACAD_REACTORS
330
6B
102
}
102
{ACAD_XDICTIONARY
360
E0
102
}
330
6B
100
AcDbMLeaderStyle
170
     2
171
     1
172
     0
 90
        2
 40
0.0
 41
0.0
173
     1
 91
-1056964608
340
14
 92
       -2
290
     1
 42
0.09
291
     1
 43
0.36
  3
Standard
341
0
 44
0.18
300

342
11
174
     1
178
     6
175
     1
176
     0
 93
-1056964608
 45
0.18
292
     0
297
     0
 46
0.18
343
0
 94
-1056964608
 47
1.0
 49
1.0
140
1.0
293
     1
141
0.0
294
     1
177
     0
142
1.0
295
     0
296
     0
143
0.125
1001
ACAD_MLEADERVER
1070
     2
  0
MLINESTYLE
  5
18
102
{ACAD_REACTORS
330
17
102
}
330
17
100
AcDbMlineStyle
  2
Standard
 70
     0
  3

 62
   256
 51
90.0
 52
90.0
 71
     2
 49
0.5
 62
   256
  6
BYLAYER
 49
-0.5
 62
   256
  6
BYLAYER
  0
ACDBPLACEHOLDER
  5
F
102
{ACAD_REACTORS
330
E
102
}
330
E
  0
SCALE
  5
48
102
{ACAD_REACTORS
330
47
102
}
330
47
100
AcDbScale
 70
     0
300
1:1
140
1.0
141
1.0
290
     1
  0
SCALE
  5
49
102
{ACAD_REACTORS
330
47
102
}
330
47
100
AcDbScale
 70
     0
300
1:2
140
1.0
141
2.0
290
     0
  0
SCALE
  5
4A
102
{ACAD_REACTORS
330
47
102
}
330
47
100
AcDbScale
 70
     0
300
1:4
140
1.0
141
4.0
290
     0
  0
SCALE
  5
4B
102
{ACAD_REACTORS
330
47
102
}
330
47
100
AcDbScale
 70
     0
300
1:5
140
1.0
141
5.0
290
     0
  0
SCALE
  5
4C
102
{ACAD_REACTORS
330
47
102
}
330
47
100
AcDbScale
 70
     0
300
1:8
140
1.0
141
8.0
290
     0
  0
SCALE
  5
4D
102
{ACAD_REACTORS
330
47
102
}
330
47
100
AcDbScale
 70
     0
300
1:10
140
1.0
141
10.0
290
     0
  0
SCALE
  5
4E
102
{ACAD_REACTORS
330
47
102
}
330
47
100
AcDbScale
 70
     0
300
1:16
140
1.0
141
16.0
290
     0
  0
SCALE
  5
4F
102
{ACAD_REACTORS
330
47
102
}
330
47
100
AcDbScale
 70
     0
300
1:20
140
1.0
141
20.0
290
     0
  0
SCALE
  5
50
102
{ACAD_REACTORS
330
47
102
}
330
47
100
AcDbScale
 70
     0
300
1:30
140
1.0
141
30.0
290
     0
  0
SCALE
  5
51
102
{ACAD_REACTORS
330
47
102
}
330
47
100
AcDbScale
 70
     0
300
1:40
140
1.0
141
40.0
290
     0
  0
SCALE
  5
52
102
{ACAD_REACTORS
330
47
102
}
330
47
100
AcDbScale
 70
     0
300
1:50
140
1.0
141
50.0
290
     0
  0
SCALE
  5
53
102
{ACAD_REACTORS
330
47
102
}
330
47
100
AcDbScale
 70
     0
300
1:100
140
1.0
141
100.0
290
     0
  0
SCALE
  5
54
102
{ACAD_REACTORS
330
47
102
}
330
47
100
AcDbScale
 70
     0
300
2:1
140
2.0
141
1.0
290
     0
  0
SCALE
  5
55
102
{ACAD_REACTORS
330
47
102
}
330
47
100
AcDbScale
 70
     0
300
4:1
140
4.0
141
1.0
290
     0
  0
SCALE
  5
56
102
{ACAD_REACTORS
330
47
102
}
330
47
100
AcDbScale
 70
     0
300
8:1
140
8.0
141
1.0
290
     0
  0
SCALE
  5
57
102
{ACAD_REACTORS
330
47
102
}
330
47
100
AcDbScale
 70
     0
300
10:1
140
10.0
141
1.0
290
     0
  0
SCALE
  5
58
102
{ACAD_REACTORS
330
47
102
}
330
47
100
AcDbScale
 70
     0
300
100:1
140
100.0
141
1.0
290
     0
  0
SCALE
  5
59
102
{ACAD_REACTORS
330
47
102
}
330
47
100
AcDbScale
 70
     0
300
1/128\" = 1\'-0\"
140
0.0078125
141
12.0
290
     0
  0
SCALE
  5
5A
102
{ACAD_REACTORS
330
47
102
}
330
47
100
AcDbScale
 70
     0
300
1/64\" = 1\'-0\"
140
0.015625
141
12.0
290
     0
  0
SCALE
  5
5B
102
{ACAD_REACTORS
330
47
102
}
330
47
100
AcDbScale
 70
     0
300
1/32\" = 1\'-0\"
140
0.03125
141
12.0
290
     0
  0
SCALE
  5
5C
102
{ACAD_REACTORS
330
47
102
}
330
47
100
AcDbScale
 70
     0
300
1/16\" = 1\'-0\"
140
0.0625
141
12.0
290
     0
  0
SCALE
  5
5D
102
{ACAD_REACTORS
330
47
102
}
330
47
100
AcDbScale
 70
     0
300
3/32\" = 1\'-0\"
140
0.09375
141
12.0
290
     0
  0
SCALE
  5
5E
102
{ACAD_REACTORS
330
47
102
}
330
47
100
AcDbScale
 70
     0
300
1/8\" = 1\'-0\"
140
0.125
141
12.0
290
     0
  0
SCALE
  5
5F
102
{ACAD_REACTORS
330
47
102
}
330
47
100
AcDbScale
 70
     0
300
3/16\" = 1\'-0\"
140
0.1875
141
12.0
290
     0
  0
SCALE
  5
60
102
{ACAD_REACTORS
330
47
102
}
330
47
100
AcDbScale
 70
     0
300
1/4\" = 1\'-0\"
140
0.25
141
12.0
290
     0
  0
SCALE
  5
61
102
{ACAD_REACTORS
330
47
102
}
330
47
100
AcDbScale
 70
     0
300
3/8\" = 1\'-0\"
140
0.375
141
12.0
290
     0
  0
SCALE
  5
62
102
{ACAD_REACTORS
330
47
102
}
330
47
100
AcDbScale
 70
     0
300
1/2\" = 1\'-0\"
140
0.5
141
12.0
290
     0
  0
SCALE
  5
63
102
{ACAD_REACTORS
330
47
102
}
330
47
100
AcDbScale
 70
     0
300
3/4\" = 1\'-0\"
140
0.75
141
12.0
290
     0
  0
SCALE
  5
64
102
{ACAD_REACTORS
330
47
102
}
330
47
100
AcDbScale
 70
     0
300
1\" = 1\'-0\"
140
1.0
141
12.0
290
     0
  0
SCALE
  5
65
102
{ACAD_REACTORS
330
47
102
}
330
47
100
AcDbScale
 70
     0
300
1-1/2\" = 1\'-0\"
140
1.5
141
12.0
290
     0
  0
SCALE
  5
66
102
{ACAD_REACTORS
330
47
102
}
330
47
100
AcDbScale
 70
     0
300
3\" = 1\'-0\"
140
3.0
141
12.0
290
     0
  0
SCALE
  5
67
102
{ACAD_REACTORS
330
47
102
}
330
47
100
AcDbScale
 70
     0
300
6\" = 1\'-0\"
140
6.0
141
12.0
290
     0
  0
SCALE
  5
68
102
{ACAD_REACTORS
330
47
102
}
330
47
100
AcDbScale
 70
     0
300
1\'-0\" = 1\'-0\"
140
12.0
141
12.0
290
     0
  0
TABLESTYLE
  5
6A
102
{ACAD_REACTORS
330
69
102
}
102
{ACAD_XDICTIONARY
360
DD
102
}
330
69
100
AcDbTableStyle
  3
Standard
 70
     0
 71
     0
 40
0.06
 41
0.06
280
     0
281
     0
  7
Standard
140
0.18
170
     2
 62
     0
 63
   257
283
     0
 90
        4
 91
        0
  1

274
    -2
284
     1
 64
     0
275
    -2
285
     1
 65
     0
276
    -2
286
     1
 66
     0
277
    -2
287
     1
 67
     0
278
    -2
288
     1
 68
     0
279
    -2
289
     1
 69
     0
  7
Standard
140
0.25
170
     5
 62
     0
 63
   257
283
     0
 90
        4
 91
        0
  1

274
    -2
284
     1
 64
     0
275
    -2
285
     1
 65
     0
276
    -2
286
     1
 66
     0
277
    -2
287
     1
 67
     0
278
    -2
288
     1
 68
     0
279
    -2
289
     1
 69
     0
  7
Standard
140
0.18
170
     5
 62
     0
 63
   257
283
     0
 90
        4
 91
        0
  1

274
    -2
284
     1
 64
     0
275
    -2
285
     1
 65
     0
276
    -2
286
     1
 66
     0
277
    -2
287
     1
 67
     0
278
    -2
288
     1
 68
     0
279
    -2
289
     1
 69
     0
  0
VISUALSTYLE
  5
2F
102
{ACAD_REACTORS
330
2A
102
}
102
{ACAD_XDICTIONARY
360
B5
102
}
330
2A
100
AcDbVisualStyle
  2
2dWireframe
 70
     4
 71
     0
 72
     2
 73
     0
 90
        0
 40
0.6
 41
30.0
 62
     5
 63
     7
421
 16777215
 74
     1
 91
        4
 64
     7
 65
   257
 75
     1
175
     1
 42
1.0
 92
        0
 66
   257
 43
1.0
 76
     1
 77
     6
 78
     2
 67
     7
 79
     5
170
     0
171
     0
290
     0
174
     0
 93
        1
 44
0.0
173
     0
291
     0
 45
0.0
  0
VISUALSTYLE
  5
32
102
{ACAD_REACTORS
330
2A
102
}
102
{ACAD_XDICTIONARY
360
BB
102
}
330
2A
100
AcDbVisualStyle
  2
Basic
 70
     7
 71
     1
 72
     0
 73
     1
 90
        0
 40
0.6
 41
30.0
 62
     5
 63
     7
421
 16777215
 74
     0
 91
        4
 64
     7
 65
   257
 75
     1
175
     1
 42
1.0
 92
        8
 66
     7
 43
1.0
 76
     1
 77
     6
 78
     2
 67
     7
 79
     5
170
     0
171
     0
290
     0
174
     0
 93
        1
 44
0.0
173
     0
291
     1
 45
0.0
  0
VISUALSTYLE
  5
36
102
{ACAD_REACTORS
330
2A
102
}
102
{ACAD_XDICTIONARY
360
C3
102
}
330
2A
100
AcDbVisualStyle
  2
Brighten
 70
    12
 71
     2
 72
     2
 73
     0
 90
        0
 40
0.6
 41
30.0
 62
     5
 63
     7
421
 16777215
 74
     1
 91
        4
 64
     7
 65
   257
 75
     1
175
     1
 42
1.0
 92
        8
 66
     7
 43
1.0
 76
     1
 77
     6
 78
     2
 67
     7
 79
     5
170
     0
171
     0
290
     0
174
     0
 93
        1
 44
50.0
173
     0
291
     1
 45
0.0
  0
VISUALSTYLE
  5
3A
102
{ACAD_REACTORS
330
2A
102
}
102
{ACAD_XDICTIONARY
360
CB
102
}
330
2A
100
AcDbVisualStyle
  2
ColorChange
 70
    16
 71
     2
 72
     2
 73
     3
 90
        0
 40
0.6
 41
30.0
 62
     5
 63
     8
421
  8421504
 74
     1
 91
        4
 64
     7
 65
   257
 75
     1
175
     1
 42
1.0
 92
        8
 66
     8
424
  8421504
 43
1.0
 76
     1
 77
     6
 78
     2
 67
     7
 79
     5
170
     0
171
     0
290
     0
174
     0
 93
        1
 44
0.0
173
     0
291
     1
 45
0.0
  0
VISUALSTYLE
  5
34
102
{ACAD_REACTORS
330
2A
102
}
102
{ACAD_XDICTIONARY
360
BF
102
}
330
2A
100
AcDbVisualStyle
  2
Conceptual
 70
     9
 71
     3
 72
     2
 73
     0
 90
        0
 40
0.6
 41
30.0
 62
     5
 63
     7
421
 16777215
 74
     2
 91
        2
 64
     7
 65
   257
 75
     1
175
     1
 42
179.0
 92
        8
 66
     7
 43
1.0
 76
     1
 77
     6
 78
     2
 67
     7
 79
     3
170
     0
171
     0
290
     0
174
     0
 93
        1
 44
0.0
173
     0
291
     0
 45
0.0
  0
VISUALSTYLE
  5
35
102
{ACAD_REACTORS
330
2A
102
}
102
{ACAD_XDICTIONARY
360
C1
102
}
330
2A
100
AcDbVisualStyle
  2
Dim
 70
    11
 71
     2
 72
     2
 73
     0
 90
        0
 40
0.6
 41
30.0
 62
     5
 63
     7
421
 16777215
 74
     1
 91
        4
 64
     7
 65
   257
 75
     1
175
     1
 42
1.0
 92
        8
 66
     7
 43
1.0
 76
     1
 77
     6
 78
     2
 67
     7
 79
     5
170
     0
171
     0
290
     0
174
     0
 93
        1
 44
-50.0
173
     0
291
     1
 45
0.0
  0
VISUALSTYLE
  5
3D
102
{ACAD_REACTORS
330
2A
102
}
102
{ACAD_XDICTIONARY
360
D1
102
}
330
2A
100
AcDbVisualStyle
  2
EdgeColorOff
 70
    22
 71
     2
 72
     2
 73
     0
 90
        0
 40
0.6
 41
30.0
 62
     5
 63
     7
421
 16777215
 74
     1
 91
        4
 64
     7
 65
   257
 75
     1
175
     1
 42
1.0
 92
        8
 66
     7
 43
1.0
 76
     1
 77
     6
 78
     2
 67
     7
 79
     5
170
     0
171
     0
290
     0
174
     0
 93
        1
 44
0.0
173
     0
291
     1
 45
0.0
  0
VISUALSTYLE
  5
39
102
{ACAD_REACTORS
330
2A
102
}
102
{ACAD_XDICTIONARY
360
C9
102
}
330
2A
100
AcDbVisualStyle
  2
Facepattern
 70
    15
 71
     2
 72
     2
 73
     0
 90
        0
 40
0.6
 41
30.0
 62
     5
 63
     7
421
 16777215
 74
     1
 91
        4
 64
     7
 65
   257
 75
     1
175
     1
 42
1.0
 92
        8
 66
     7
 43
1.0
 76
     1
 77
     6
 78
     2
 67
     7
 79
     5
170
     0
171
     0
290
     0
174
     0
 93
        1
 44
0.0
173
     0
291
     1
 45
0.0
  0
VISUALSTYLE
  5
2B
102
{ACAD_REACTORS
330
2A
102
}
102
{ACAD_XDICTIONARY
360
AD
102
}
330
2A
100
AcDbVisualStyle
  2
Flat
 70
     0
 71
     2
 72
     1
 73
     1
 90
        2
 40
0.6
 41
30.0
 62
     5
 63
     7
421
 16777215
 74
     0
 91
        0
 64
     7
 65
   257
 75
     1
175
     1
 42
1.0
 92
        8
 66
     7
 43
1.0
 76
     1
 77
     6
 78
     2
 67
     7
 79
     5
170
     0
171
     0
290
     0
174
     0
 93
       13
 44
0.0
173
     0
291
     1
 45
0.0
  0
VISUALSTYLE
  5
2C
102
{ACAD_REACTORS
330
2A
102
}
102
{ACAD_XDICTIONARY
360
AF
102
}
330
2A
100
AcDbVisualStyle
  2
FlatWithEdges
 70
     1
 71
     2
 72
     1
 73
     1
 90
        2
 40
0.6
 41
30.0
 62
     5
 63
     7
421
 16777215
 74
     1
 91
        0
 64
     7
 65
   257
 75
     1
175
     1
 42
1.0
 92
        0
 66
   257
 43
1.0
 76
     1
 77
     6
 78
     2
 67
     7
 79
     5
170
     0
171
     0
290
     0
174
     0
 93
       13
 44
0.0
173
     0
291
     1
 45
0.0
  0
VISUALSTYLE
  5
2D
102
{ACAD_REACTORS
330
2A
102
}
102
{ACAD_XDICTIONARY
360
B1
102
}
330
2A
100
AcDbVisualStyle
  2
Gouraud
 70
     2
 71
     2
 72
     2
 73
     1
 90
        2
 40
0.6
 41
30.0
 62
     5
 63
     7
421
 16777215
 74
     0
 91
        0
 64
     7
 65
   257
 75
     1
175
     1
 42
1.0
 92
        0
 66
     7
 43
1.0
 76
     1
 77
     6
 78
     2
 67
     7
 79
     5
170
     0
171
     0
290
     0
174
     0
 93
       13
 44
0.0
173
     0
291
     1
 45
0.0
  0
VISUALSTYLE
  5
2E
102
{ACAD_REACTORS
330
2A
102
}
102
{ACAD_XDICTIONARY
360
B3
102
}
330
2A
100
AcDbVisualStyle
  2
GouraudWithEdges
 70
     3
 71
     2
 72
     2
 73
     1
 90
        2
 40
0.6
 41
30.0
 62
     5
 63
     7
421
 16777215
 74
     1
 91
        0
 64
     7
 65
   257
 75
     1
175
     1
 42
1.0
 92
        0
 66
   257
 43
1.0
 76
     1
 77
     6
 78
     2
 67
     7
 79
     5
170
     0
171
     0
290
     0
174
     0
 93
       13
 44
0.0
173
     0
291
     1
 45
0.0
  0
VISUALSTYLE
  5
31
102
{ACAD_REACTORS
330
2A
102
}
102
{ACAD_XDICTIONARY
360
B9
102
}
330
2A
100
AcDbVisualStyle
  2
Hidden
 70
     6
 71
     1
 72
     2
 73
     2
 90
        0
 40
0.6
 41
30.0
 62
     5
 63
     7
421
 16777215
 74
     2
 91
        2
 64
     7
 65
   257
 75
     2
175
     1
 42
40.0
 92
        0
 66
   257
 43
1.0
 76
     1
 77
     6
 78
     2
 67
     7
 79
     3
170
     0
171
     0
290
     0
174
     0
 93
        1
 44
0.0
173
     0
291
     0
 45
0.0
  0
VISUALSTYLE
  5
3B
102
{ACAD_REACTORS
330
2A
102
}
102
{ACAD_XDICTIONARY
360
CD
102
}
330
2A
100
AcDbVisualStyle
  2
JitterOff
 70
    20
 71
     2
 72
     2
 73
     0
 90
        0
 40
0.6
 41
30.0
 62
     5
 63
     7
421
 16777215
 74
     1
 91
        4
 64
     7
 65
   257
 75
     1
175
     1
 42
1.0
 92
       10
 66
     7
 43
1.0
 76
     1
 77
     6
 78
     2
 67
     7
 79
     5
170
     0
171
     0
290
     0
174
     0
 93
        1
 44
0.0
173
     0
291
     1
 45
0.0
  0
VISUALSTYLE
  5
38
102
{ACAD_REACTORS
330
2A
102
}
102
{ACAD_XDICTIONARY
360
C7
102
}
330
2A
100
AcDbVisualStyle
  2
Linepattern
 70
    14
 71
     2
 72
     2
 73
     0
 90
        0
 40
0.6
 41
30.0
 62
     5
 63
     7
421
 16777215
 74
     1
 91
        4
 64
     7
 65
   257
 75
     7
175
     7
 42
1.0
 92
        8
 66
     7
 43
1.0
 76
     1
 77
     6
 78
     2
 67
     7
 79
     5
170
     0
171
     0
290
     0
174
     0
 93
        1
 44
0.0
173
     0
291
     1
 45
0.0
  0
VISUALSTYLE
  5
3C
102
{ACAD_REACTORS
330
2A
102
}
102
{ACAD_XDICTIONARY
360
CF
102
}
330
2A
100
AcDbVisualStyle
  2
OverhangOff
 70
    21
 71
     2
 72
     2
 73
     0
 90
        0
 40
0.6
 41
30.0
 62
     5
 63
     7
421
 16777215
 74
     1
 91
        4
 64
     7
 65
   257
 75
     1
175
     1
 42
1.0
 92
        9
 66
     7
 43
1.0
 76
     1
 77
     6
 78
     2
 67
     7
 79
     5
170
     0
171
     0
290
     0
174
     0
 93
        1
 44
0.0
173
     0
291
     1
 45
0.0
  0
VISUALSTYLE
  5
33
102
{ACAD_REACTORS
330
2A
102
}
102
{ACAD_XDICTIONARY
360
BD
102
}
330
2A
100
AcDbVisualStyle
  2
Realistic
 70
     8
 71
     2
 72
     3
 73
     0
 90
        2
 40
0.6
 41
30.0
 62
     5
 63
     7
421
 16777215
 74
     0
 91
        0
 64
     7
 65
   257
 75
     1
175
     1
 42
1.0
 92
        8
 66
   257
 43
1.0
 76
     1
 77
     6
 78
     2
 67
     7
 79
     3
170
     0
171
     0
290
     0
174
     0
 93
       13
 44
0.0
173
     0
291
     0
 45
0.0
  0
VISUALSTYLE
  5
42
102
{ACAD_REACTORS
330
2A
102
}
102
{ACAD_XDICTIONARY
360
DB
102
}
330
2A
100
AcDbVisualStyle
  2
Shaded
 70
    27
 71
     2
 72
     2
 73
     1
 90
        2
 40
0.6
 41
30.0
 62
     5
 63
     7
421
 16777215
 74
     0
 91
        4
 64
     7
 65
   257
 75
     1
175
     1
 42
1.0
 92
        8
 66
   257
 43
1.0
 76
     1
 77
     6
 78
     2
 67
     8
425
  7895160
 79
     3
170
     0
171
     0
290
     0
174
     0
 93
        5
 44
0.0
173
     0
291
     0
 45
0.0
  0
VISUALSTYLE
  5
41
102
{ACAD_REACTORS
330
2A
102
}
102
{ACAD_XDICTIONARY
360
D9
102
}
330
2A
100
AcDbVisualStyle
  2
Shaded with edges
 70
    26
 71
     2
 72
     2
 73
     1
 90
        2
 40
0.6
 41
30.0
 62
     5
 63
     7
421
 16777215
 74
     1
 91
       10
 64
     7
 65
   257
 75
     2
175
     1
 42
1.0
 92
        8
 66
   257
 43
1.0
 76
     1
 77
     6
 78
     2
 67
     7
 79
     3
170
     0
171
     0
290
     0
174
     0
 93
        5
 44
0.0
173
     0
291
     0
 45
0.0
  0
VISUALSTYLE
  5
3E
102
{ACAD_REACTORS
330
2A
102
}
102
{ACAD_XDICTIONARY
360
D3
102
}
330
2A
100
AcDbVisualStyle
  2
Shades of Gray
 70
    23
 71
     2
 72
     2
 73
     3
 90
        0
 40
0.6
 41
30.0
 62
     5
 63
     7
421
 16777215
 74
     2
 91
        2
 64
     7
 65
     7
 75
     1
175
     1
 42
40.0
 92
        8
 66
     7
 43
1.0
 76
     1
 77
     6
 78
     2
 67
     7
 79
     3
170
     0
171
     0
290
     0
174
     0
 93
        1
 44
0.0
173
     0
291
     0
 45
0.0
  0
VISUALSTYLE
  5
3F
102
{ACAD_REACTORS
330
2A
102
}
102
{ACAD_XDICTIONARY
360
D5
102
}
330
2A
100
AcDbVisualStyle
  2
Sketchy
 70
    24
 71
     1
 72
     2
 73
     2
 90
        0
 40
0.6
 41
30.0
 62
     5
 63
     7
421
 16777215
 74
     2
 91
        2
 64
     7
 65
     7
 75
     1
175
     1
 42
40.0
 92
       11
 66
     7
 43
1.0
 76
     1
 77
     6
 78
     2
 67
     7
 79
     6
170
     0
171
     0
290
     0
174
     0
 93
        1
 44
0.0
173
     0
291
     0
 45
0.0
  0
VISUALSTYLE
  5
37
102
{ACAD_REACTORS
330
2A
102
}
102
{ACAD_XDICTIONARY
360
C5
102
}
330
2A
100
AcDbVisualStyle
  2
Thicken
 70
    13
 71
     2
 72
     2
 73
     0
 90
        0
 40
0.6
 41
30.0
 62
     5
 63
     7
421
 16777215
 74
     1
 91
        4
 64
     7
 65
   257
 75
     1
175
     1
 42
1.0
 92
       12
 66
     7
 43
1.0
 76
     1
 77
     6
 78
     2
 67
     7
 79
     5
170
     0
171
     0
290
     0
174
     0
 93
        1
 44
0.0
173
     0
291
     1
 45
0.0
  0
VISUALSTYLE
  5
30
102
{ACAD_REACTORS
330
2A
102
}
102
{ACAD_XDICTIONARY
360
B7
102
}
330
2A
100
AcDbVisualStyle
  2
Wireframe
 70
     5
 71
     0
 72
     2
 73
     0
 90
        0
 40
0.6
 41
30.0
 62
     5
 63
     7
421
 16777215
 74
     1
 91
        4
 64
     7
 65
   257
 75
     1
175
     1
 42
1.0
 92
        0
 66
   257
 43
1.0
 76
     1
 77
     6
 78
     2
 67
     7
 79
     3
170
     0
171
     0
290
     0
174
     0
 93
        1
 44
0.0
173
     0
291
     0
 45
0.0
  0
VISUALSTYLE
  5
40
102
{ACAD_REACTORS
330
2A
102
}
102
{ACAD_XDICTIONARY
360
D7
102
}
330
2A
100
AcDbVisualStyle
  2
X-Ray
 70
    25
 71
     2
 72
     2
 73
     1
 90
        1
 40
0.5
 41
30.0
 62
     5
 63
     7
421
 16777215
 74
     1
 91
        0
 64
     7
 65
   257
 75
     1
175
     1
 42
1.0
 92
        8
 66
     7
 43
1.0
 76
     1
 77
     6
 78
     2
 67
     7
 79
     3
170
     0
171
     0
290
     0
174
     0
 93
       13
 44
0.0
173
     0
291
     0
 45
0.0
  0
DICTIONARYVAR
  5
AB
102
{ACAD_REACTORS
330
AA
102
}
330
AA
100
DictionaryVariables
280
     0
  1
1:1
  0
DICTIONARYVAR
  5
E4
102
{ACAD_REACTORS
330
AA
102
}
330
AA
100
DictionaryVariables
280
     0
  1
Standard
  0
DICTIONARYVAR
  5
E3
102
{ACAD_REACTORS
330
AA
102
}
330
AA
100
DictionaryVariables
280
     0
  1
Standard
  0
DICTIONARYVAR
  5
AC
102
{ACAD_REACTORS
330
AA
102
}
330
AA
100
DictionaryVariables
280
     0
  1
2
  0
DICTIONARY
  5
E0
330
6C
100
AcDbDictionary
280
     1
281
     1
  3
ACAD_XREC_ROUNDTRIP
360
E1
  0
DICTIONARY
  5
DD
330
6A
100
AcDbDictionary
280
     1
281
     1
  3
ACAD_ROUNDTRIP_2008_TABLESTYLE_CELLSTYLEMAP
360
DE
  0
DICTIONARY
  5
B5
330
2F
100
AcDbDictionary
280
     1
281
     1
  3
ACAD_XREC_ROUNDTRIP
360
B6
  0
DICTIONARY
  5
BB
330
32
100
AcDbDictionary
280
     1
281
     1
  3
ACAD_XREC_ROUNDTRIP
360
BC
  0
DICTIONARY
  5
C3
330
36
100
AcDbDictionary
280
     1
281
     1
  3
ACAD_XREC_ROUNDTRIP
360
C4
  0
DICTIONARY
  5
CB
330
3A
100
AcDbDictionary
280
     1
281
     1
  3
ACAD_XREC_ROUNDTRIP
360
CC
  0
DICTIONARY
  5
BF
330
34
100
AcDbDictionary
280
     1
281
     1
  3
ACAD_XREC_ROUNDTRIP
360
C0
  0
DICTIONARY
  5
C1
330
35
100
AcDbDictionary
280
     1
281
     1
  3
ACAD_XREC_ROUNDTRIP
360
C2
  0
DICTIONARY
  5
D1
330
3D
100
AcDbDictionary
280
     1
281
     1
  3
ACAD_XREC_ROUNDTRIP
360
D2
  0
DICTIONARY
  5
C9
330
39
100
AcDbDictionary
280
     1
281
     1
  3
ACAD_XREC_ROUNDTRIP
360
CA
  0
DICTIONARY
  5
AD
330
2B
100
AcDbDictionary
280
     1
281
     1
  3
ACAD_XREC_ROUNDTRIP
360
AE
  0
DICTIONARY
  5
AF
330
2C
100
AcDbDictionary
280
     1
281
     1
  3
ACAD_XREC_ROUNDTRIP
360
B0
  0
DICTIONARY
  5
B1
330
2D
100
AcDbDictionary
280
     1
281
     1
  3
ACAD_XREC_ROUNDTRIP
360
B2
  0
DICTIONARY
  5
B3
330
2E
100
AcDbDictionary
280
     1
281
     1
  3
ACAD_XREC_ROUNDTRIP
360
B4
  0
DICTIONARY
  5
B9
330
31
100
AcDbDictionary
280
     1
281
     1
  3
ACAD_XREC_ROUNDTRIP
360
BA
  0
DICTIONARY
  5
CD
330
3B
100
AcDbDictionary
280
     1
281
     1
  3
ACAD_XREC_ROUNDTRIP
360
CE
  0
DICTIONARY
  5
C7
330
38
100
AcDbDictionary
280
     1
281
     1
  3
ACAD_XREC_ROUNDTRIP
360
C8
  0
DICTIONARY
  5
CF
330
3C
100
AcDbDictionary
280
     1
281
     1
  3
ACAD_XREC_ROUNDTRIP
360
D0
  0
DICTIONARY
  5
BD
330
33
100
AcDbDictionary
280
     1
281
     1
  3
ACAD_XREC_ROUNDTRIP
360
BE
  0
DICTIONARY
  5
DB
330
42
100
AcDbDictionary
280
     1
281
     1
  3
ACAD_XREC_ROUNDTRIP
360
DC
  0
DICTIONARY
  5
D9
330
41
100
AcDbDictionary
280
     1
281
     1
  3
ACAD_XREC_ROUNDTRIP
360
DA
  0
DICTIONARY
  5
D3
330
3E
100
AcDbDictionary
280
     1
281
     1
  3
ACAD_XREC_ROUNDTRIP
360
D4
  0
DICTIONARY
  5
D5
330
3F
100
AcDbDictionary
280
     1
281
     1
  3
ACAD_XREC_ROUNDTRIP
360
D6
  0
DICTIONARY
  5
C5
330
37
100
AcDbDictionary
280
     1
281
     1
  3
ACAD_XREC_ROUNDTRIP
360
C6
  0
DICTIONARY
  5
B7
330
30
100
AcDbDictionary
280
     1
281
     1
  3
ACAD_XREC_ROUNDTRIP
360
B8
  0
DICTIONARY
  5
D7
330
40
100
AcDbDictionary
280
     1
281
     1
  3
ACAD_XREC_ROUNDTRIP
360
D8
  0
XRECORD
  5
E1
102
{ACAD_REACTORS
330
E0
102
}
330
E0
100
AcDbXrecord
280
     1
102
ACAD_ROUNDTRIP_2010_MLEADER_STYLE
  0
CELLSTYLEMAP
  5
DE
102
{ACAD_REACTORS
330
DD
102
}
330
DD
100
AcDbCellStyleMap
 90
        3
300
CELLSTYLE
  1
TABLEFORMAT_BEGIN
 90
        5
170
     1
 91
        0
 92
    32768
 62
   257
 93
        1
300
CONTENTFORMAT
  1
CONTENTFORMAT_BEGIN
 90
        0
 91
        0
 92
        4
 93
        0
300

 40
0.0
140
1.0
 94
        5
 62
     0
340
11
144
0.25
309
CONTENTFORMAT_END
171
     1
301
MARGIN
  1
CELLMARGIN_BEGIN
 40
0.06
 40
0.06
 40
0.06
 40
0.06
 40
0.06
 40
0.06
309
CELLMARGIN_END
 94
        6
 95
        1
302
GRIDFORMAT
  1
GRIDFORMAT_BEGIN
 90
        0
 91
        1
 62
     0
 92
       -2
340
14
 93
        0
 40
0.045
309
GRIDFORMAT_END
 95
        2
302
GRIDFORMAT
  1
GRIDFORMAT_BEGIN
 90
        0
 91
        1
 62
     0
 92
       -2
340
14
 93
        0
 40
0.045
309
GRIDFORMAT_END
 95
        4
302
GRIDFORMAT
  1
GRIDFORMAT_BEGIN
 90
        0
 91
        1
 62
     0
 92
       -2
340
14
 93
        0
 40
0.045
309
GRIDFORMAT_END
 95
        8
302
GRIDFORMAT
  1
GRIDFORMAT_BEGIN
 90
        0
 91
        1
 62
     0
 92
       -2
340
14
 93
        0
 40
0.045
309
GRIDFORMAT_END
 95
       16
302
GRIDFORMAT
  1
GRIDFORMAT_BEGIN
 90
        0
 91
        1
 62
     0
 92
       -2
340
14
 93
        0
 40
0.045
309
GRIDFORMAT_END
 95
       32
302
GRIDFORMAT
  1
GRIDFORMAT_BEGIN
 90
        0
 91
        1
 62
     0
 92
       -2
340
14
 93
        0
 40
0.045
309
GRIDFORMAT_END
309
TABLEFORMAT_END
  1
CELLSTYLE_BEGIN
 90
        1
 91
        1
300
_TITLE
309
CELLSTYLE_END
300
CELLSTYLE
  1
TABLEFORMAT_BEGIN
 90
        5
170
     1
 91
        0
 92
        0
 62
   257
 93
        1
300
CONTENTFORMAT
  1
CONTENTFORMAT_BEGIN
 90
        0
 91
        0
 92
        4
 93
        0
300

 40
0.0
140
1.0
 94
        5
 62
     0
340
11
144
0.18
309
CONTENTFORMAT_END
171
     1
301
MARGIN
  1
CELLMARGIN_BEGIN
 40
0.06
 40
0.06
 40
0.06
 40
0.06
 40
0.06
 40
0.06
309
CELLMARGIN_END
 94
        6
 95
        1
302
GRIDFORMAT
  1
GRIDFORMAT_BEGIN
 90
        0
 91
        1
 62
     0
 92
       -2
340
14
 93
        0
 40
0.045
309
GRIDFORMAT_END
 95
        2
302
GRIDFORMAT
  1
GRIDFORMAT_BEGIN
 90
        0
 91
        1
 62
     0
 92
       -2
340
14
 93
        0
 40
0.045
309
GRIDFORMAT_END
 95
        4
302
GRIDFORMAT
  1
GRIDFORMAT_BEGIN
 90
        0
 91
        1
 62
     0
 92
       -2
340
14
 93
        0
 40
0.045
309
GRIDFORMAT_END
 95
        8
302
GRIDFORMAT
  1
GRIDFORMAT_BEGIN
 90
        0
 91
        1
 62
     0
 92
       -2
340
14
 93
        0
 40
0.045
309
GRIDFORMAT_END
 95
       16
302
GRIDFORMAT
  1
GRIDFORMAT_BEGIN
 90
        0
 91
        1
 62
     0
 92
       -2
340
14
 93
        0
 40
0.045
309
GRIDFORMAT_END
 95
       32
302
GRIDFORMAT
  1
GRIDFORMAT_BEGIN
 90
        0
 91
        1
 62
     0
 92
       -2
340
14
 93
        0
 40
0.045
309
GRIDFORMAT_END
309
TABLEFORMAT_END
  1
CELLSTYLE_BEGIN
 90
        2
 91
        1
300
_HEADER
309
CELLSTYLE_END
300
CELLSTYLE
  1
TABLEFORMAT_BEGIN
 90
        5
170
     1
 91
        0
 92
        0
 62
   257
 93
        1
300
CONTENTFORMAT
  1
CONTENTFORMAT_BEGIN
 90
        0
 91
        0
 92
        4
 93
        0
300

 40
0.0
140
1.0
 94
        2
 62
     0
340
11
144
0.18
309
CONTENTFORMAT_END
171
     1
301
MARGIN
  1
CELLMARGIN_BEGIN
 40
0.06
 40
0.06
 40
0.06
 40
0.06
 40
0.06
 40
0.06
309
CELLMARGIN_END
 94
        6
 95
        1
302
GRIDFORMAT
  1
GRIDFORMAT_BEGIN
 90
        0
 91
        1
 62
     0
 92
       -2
340
14
 93
        0
 40
0.045
309
GRIDFORMAT_END
 95
        2
302
GRIDFORMAT
  1
GRIDFORMAT_BEGIN
 90
        0
 91
        1
 62
     0
 92
       -2
340
14
 93
        0
 40
0.045
309
GRIDFORMAT_END
 95
        4
302
GRIDFORMAT
  1
GRIDFORMAT_BEGIN
 90
        0
 91
        1
 62
     0
 92
       -2
340
14
 93
        0
 40
0.045
309
GRIDFORMAT_END
 95
        8
302
GRIDFORMAT
  1
GRIDFORMAT_BEGIN
 90
        0
 91
        1
 62
     0
 92
       -2
340
14
 93
        0
 40
0.045
309
GRIDFORMAT_END
 95
       16
302
GRIDFORMAT
  1
GRIDFORMAT_BEGIN
 90
        0
 91
        1
 62
     0
 92
       -2
340
14
 93
        0
 40
0.045
309
GRIDFORMAT_END
 95
       32
302
GRIDFORMAT
  1
GRIDFORMAT_BEGIN
 90
        0
 91
        1
 62
     0
 92
       -2
340
14
 93
        0
 40
0.045
309
GRIDFORMAT_END
309
TABLEFORMAT_END
  1
CELLSTYLE_BEGIN
 90
        3
 91
        2
300
_DATA
309
CELLSTYLE_END
  0
XRECORD
  5
B6
102
{ACAD_REACTORS
330
B5
102
}
330
B5
100
AcDbXrecord
280
     1
102
RTVSPropertyOp0
 70
     1
102
RTVSPropertyOp1
 70
     1
102
RTVSPropertyOp2
 70
     1
102
RTVSPropertyOp3
 70
     1
102
RTVSPropertyOp4
 70
     1
102
RTVSPropertyOp5
 70
     1
102
RTVSPropertyOp6
 70
     1
102
RTVSPropertyOp7
 70
     1
102
RTVSPropertyOp8
 70
     1
102
RTVSPropertyOp9
 70
     1
102
RTVSPropertyOp10
 70
     1
102
RTVSPropertyOp11
 70
     1
102
RTVSPropertyOp12
 70
     1
102
RTVSPropertyOp13
 70
     1
102
RTVSPropertyOp14
 70
     1
102
RTVSPropertyOp15
 70
     1
102
RTVSPropertyOp16
 70
     1
102
RTVSPropertyOp17
 70
     1
102
RTVSPropertyOp18
 70
     1
102
RTVSPropertyOp19
 70
     1
102
RTVSPropertyOp20
 70
     1
102
RTVSPropertyOp21
 70
     1
102
RTVSPropertyOp22
 70
     1
102
RTVSPropertyOp23
 70
     1
102
RTVSPropertyOp24
 70
     1
102
RTVSPropertyOp25
 70
     1
102
RTVSPropertyOp26
 70
     1
102
RTVSPropertyOp27
 70
     1
102
RTVSPropertyOp28
 70
     1
102
RTVSPropertyOp29
 70
     1
102
RTVSPropertyOp30
 70
     1
102
RTVSPropertyOp31
 70
     1
102
RTVSPropertyOp32
 70
     1
102
RTVSPropertyOp33
 70
     1
102
RTVSPropertyOp34
 70
     1
102
RTVSPropertyOp35
 70
     1
102
RTVSPropertyOp36
 70
     1
102
RTVSPropertyOp37
 70
     1
102
RTVSPropertyOp38
 70
     1
102
RTVSPropertyOp39
 70
     1
102
RTVSPropertyOp40
 70
     1
102
RTVSPropertyOp41
 70
     1
102
RTVSPropertyOp42
 70
     1
102
RTVSPropertyOp43
 70
     1
102
RTVSPropertyOp44
 70
     1
102
RTVSPropertyOp45
 70
     1
102
RTVSPropertyOp46
 70
     1
102
RTVSPropertyOp47
 70
     1
102
RTVSPropertyOp48
 70
     1
102
RTVSPropertyOp49
 70
     1
102
RTVSPropertyOp50
 70
     1
102
RTVSPropertyOp51
 70
     0
102
RTVSPropertyOp52
 70
     0
102
RTVSPropertyOp53
 70
     1
102
RTVSPropertyOp54
 70
     1
102
RTVSPropertyOp55
 70
     1
102
RTVSPropertyOp56
 70
     1
102
RTVSPropertyOp57
 70
     1
102
RTVSPost2010Prop28
280
     1
102
RTVSPost2010PropOp28
 70
     1
102
RTVSPost2010Prop29
280
     1
102
RTVSPost2010PropOp29
 70
     1
102
RTVSPost2010Prop30
280
     0
102
RTVSPost2010PropOp30
 70
     1
102
RTVSPost2010Prop31
280
     0
102
RTVSPost2010PropOp31
 70
     1
102
RTVSPost2010Prop32
280
     0
102
RTVSPost2010PropOp32
 70
     1
102
RTVSPost2010Prop33
280
     0
102
RTVSPost2010PropOp33
 70
     1
102
RTVSPost2010Prop34
280
     0
102
RTVSPost2010PropOp34
 70
     1
102
RTVSPost2010Prop35
280
     0
102
RTVSPost2010PropOp35
 70
     1
102
RTVSPost2010Prop36
280
     0
102
RTVSPost2010PropOp36
 70
     1
102
RTVSPost2010Prop37
 90
       50
102
RTVSPost2010PropOp37
 70
     1
102
RTVSPost2010Prop38
140
0.0
102
RTVSPost2010PropOp38
 70
     1
102
RTVSPost2010Prop39
140
1.0
102
RTVSPost2010PropOp39
 70
     1
102
RTVSPost2010Prop40
 90
        0
102
RTVSPost2010PropOp40
 70
     1
102
RTVSPost2010Prop41ColorIndex
 90
       18
102
RTVSPost2010Prop41ColorRGB
 90
        0
102
RTVSPost2010PropOp41
 70
     1
102
RTVSPost2010Prop42
 90
       50
102
RTVSPost2010PropOp42
 70
     1
102
RTVSPost2010Prop43
 90
        3
102
RTVSPost2010PropOp43
 70
     1
102
RTVSPost2010Prop44ColorIndex
 90
        5
102
RTVSPost2010Prop44ColorRGB
 90
      255
102
RTVSPost2010PropOp44
 70
     1
102
RTVSPost2010Prop45
280
     0
102
RTVSPost2010PropOp45
 70
     1
102
RTVSPost2010Prop46
 90
       50
102
RTVSPost2010PropOp46
 70
     1
102
RTVSPost2010Prop47
 90
       50
102
RTVSPost2010PropOp47
 70
     1
102
RTVSPost2010Prop48
 90
       50
102
RTVSPost2010PropOp48
 70
     1
102
RTVSPost2010Prop49
280
     0
102
RTVSPost2010PropOp49
 70
     1
102
RTVSPost2010Prop50
 90
       50
102
RTVSPost2010PropOp50
 70
     1
102
RTVSPost2010Prop51ColorIndex
 90
      256
102
RTVSPost2010Prop51ColorRGB
 90
-16777216
102
RTVSPost2010PropOp51
 70
     0
102
RTVSPost2010Prop52
140
1.0
102
RTVSPost2010PropOp52
 70
     0
102
RTVSPost2010Prop53
 90
        2
102
RTVSPost2010PropOp53
 70
     1
102
RTVSPost2010Prop54
  1
strokes_ogs.tif
102
RTVSPost2010PropOp54
 70
     1
102
RTVSPost2010Prop55
280
     0
102
RTVSPost2010PropOp55
 70
     1
102
RTVSPost2010Prop56
140
1.0
102
RTVSPost2010PropOp56
 70
     1
102
RTVSPost2010Prop57
140
1.0
102
RTVSPost2010PropOp57
 70
     1
  0
XRECORD
  5
BC
102
{ACAD_REACTORS
330
BB
102
}
330
BB
100
AcDbXrecord
280
     1
102
RTVSPropertyOp0
 70
     1
102
RTVSPropertyOp1
 70
     1
102
RTVSPropertyOp2
 70
     1
102
RTVSPropertyOp3
 70
     1
102
RTVSPropertyOp4
 70
     1
102
RTVSPropertyOp5
 70
     1
102
RTVSPropertyOp6
 70
     1
102
RTVSPropertyOp7
 70
     1
102
RTVSPropertyOp8
 70
     1
102
RTVSPropertyOp9
 70
     1
102
RTVSPropertyOp10
 70
     1
102
RTVSPropertyOp11
 70
     1
102
RTVSPropertyOp12
 70
     1
102
RTVSPropertyOp13
 70
     1
102
RTVSPropertyOp14
 70
     1
102
RTVSPropertyOp15
 70
     1
102
RTVSPropertyOp16
 70
     1
102
RTVSPropertyOp17
 70
     1
102
RTVSPropertyOp18
 70
     1
102
RTVSPropertyOp19
 70
     1
102
RTVSPropertyOp20
 70
     1
102
RTVSPropertyOp21
 70
     1
102
RTVSPropertyOp22
 70
     1
102
RTVSPropertyOp23
 70
     1
102
RTVSPropertyOp24
 70
     1
102
RTVSPropertyOp25
 70
     1
102
RTVSPropertyOp26
 70
     1
102
RTVSPropertyOp27
 70
     1
102
RTVSPropertyOp28
 70
     1
102
RTVSPropertyOp29
 70
     1
102
RTVSPropertyOp30
 70
     1
102
RTVSPropertyOp31
 70
     1
102
RTVSPropertyOp32
 70
     1
102
RTVSPropertyOp33
 70
     1
102
RTVSPropertyOp34
 70
     1
102
RTVSPropertyOp35
 70
     1
102
RTVSPropertyOp36
 70
     1
102
RTVSPropertyOp37
 70
     1
102
RTVSPropertyOp38
 70
     1
102
RTVSPropertyOp39
 70
     1
102
RTVSPropertyOp40
 70
     1
102
RTVSPropertyOp41
 70
     1
102
RTVSPropertyOp42
 70
     1
102
RTVSPropertyOp43
 70
     1
102
RTVSPropertyOp44
 70
     1
102
RTVSPropertyOp45
 70
     1
102
RTVSPropertyOp46
 70
     1
102
RTVSPropertyOp47
 70
     1
102
RTVSPropertyOp48
 70
     1
102
RTVSPropertyOp49
 70
     1
102
RTVSPropertyOp50
 70
     1
102
RTVSPropertyOp51
 70
     0
102
RTVSPropertyOp52
 70
     0
102
RTVSPropertyOp53
 70
     1
102
RTVSPropertyOp54
 70
     1
102
RTVSPropertyOp55
 70
     1
102
RTVSPropertyOp56
 70
     1
102
RTVSPropertyOp57
 70
     1
102
RTVSPost2010Prop28
280
     0
102
RTVSPost2010PropOp28
 70
     1
102
RTVSPost2010Prop29
280
     1
102
RTVSPost2010PropOp29
 70
     1
102
RTVSPost2010Prop30
280
     1
102
RTVSPost2010PropOp30
 70
     1
102
RTVSPost2010Prop31
280
     0
102
RTVSPost2010PropOp31
 70
     1
102
RTVSPost2010Prop32
280
     0
102
RTVSPost2010PropOp32
 70
     1
102
RTVSPost2010Prop33
280
     0
102
RTVSPost2010PropOp33
 70
     1
102
RTVSPost2010Prop34
280
     0
102
RTVSPost2010PropOp34
 70
     1
102
RTVSPost2010Prop35
280
     0
102
RTVSPost2010PropOp35
 70
     1
102
RTVSPost2010Prop36
280
     0
102
RTVSPost2010PropOp36
 70
     1
102
RTVSPost2010Prop37
 90
       50
102
RTVSPost2010PropOp37
 70
     1
102
RTVSPost2010Prop38
140
0.0
102
RTVSPost2010PropOp38
 70
     1
102
RTVSPost2010Prop39
140
1.0
102
RTVSPost2010PropOp39
 70
     1
102
RTVSPost2010Prop40
 90
        0
102
RTVSPost2010PropOp40
 70
     1
102
RTVSPost2010Prop41ColorIndex
 90
       18
102
RTVSPost2010Prop41ColorRGB
 90
        0
102
RTVSPost2010PropOp41
 70
     1
102
RTVSPost2010Prop42
 90
       50
102
RTVSPost2010PropOp42
 70
     1
102
RTVSPost2010Prop43
 90
        3
102
RTVSPost2010PropOp43
 70
     1
102
RTVSPost2010Prop44ColorIndex
 90
        5
102
RTVSPost2010Prop44ColorRGB
 90
      255
102
RTVSPost2010PropOp44
 70
     1
102
RTVSPost2010Prop45
280
     0
102
RTVSPost2010PropOp45
 70
     1
102
RTVSPost2010Prop46
 90
       50
102
RTVSPost2010PropOp46
 70
     1
102
RTVSPost2010Prop47
 90
       50
102
RTVSPost2010PropOp47
 70
     1
102
RTVSPost2010Prop48
 90
       50
102
RTVSPost2010PropOp48
 70
     1
102
RTVSPost2010Prop49
280
     0
102
RTVSPost2010PropOp49
 70
     1
102
RTVSPost2010Prop50
 90
       50
102
RTVSPost2010PropOp50
 70
     1
102
RTVSPost2010Prop51ColorIndex
 90
      256
102
RTVSPost2010Prop51ColorRGB
 90
-16777216
102
RTVSPost2010PropOp51
 70
     0
102
RTVSPost2010Prop52
140
1.0
102
RTVSPost2010PropOp52
 70
     0
102
RTVSPost2010Prop53
 90
        2
102
RTVSPost2010PropOp53
 70
     1
102
RTVSPost2010Prop54
  1
strokes_ogs.tif
102
RTVSPost2010PropOp54
 70
     1
102
RTVSPost2010Prop55
280
     0
102
RTVSPost2010PropOp55
 70
     1
102
RTVSPost2010Prop56
140
1.0
102
RTVSPost2010PropOp56
 70
     1
102
RTVSPost2010Prop57
140
1.0
102
RTVSPost2010PropOp57
 70
     1
  0
XRECORD
  5
C4
102
{ACAD_REACTORS
330
C3
102
}
330
C3
100
AcDbXrecord
280
     1
102
RTVSPropertyOp0
 70
     1
102
RTVSPropertyOp1
 70
     1
102
RTVSPropertyOp2
 70
     1
102
RTVSPropertyOp3
 70
     1
102
RTVSPropertyOp4
 70
     1
102
RTVSPropertyOp5
 70
     1
102
RTVSPropertyOp6
 70
     1
102
RTVSPropertyOp7
 70
     1
102
RTVSPropertyOp8
 70
     1
102
RTVSPropertyOp9
 70
     1
102
RTVSPropertyOp10
 70
     1
102
RTVSPropertyOp11
 70
     1
102
RTVSPropertyOp12
 70
     1
102
RTVSPropertyOp13
 70
     1
102
RTVSPropertyOp14
 70
     1
102
RTVSPropertyOp15
 70
     1
102
RTVSPropertyOp16
 70
     1
102
RTVSPropertyOp17
 70
     1
102
RTVSPropertyOp18
 70
     1
102
RTVSPropertyOp19
 70
     1
102
RTVSPropertyOp20
 70
     1
102
RTVSPropertyOp21
 70
     1
102
RTVSPropertyOp22
 70
     1
102
RTVSPropertyOp23
 70
     1
102
RTVSPropertyOp24
 70
     1
102
RTVSPropertyOp25
 70
     1
102
RTVSPropertyOp26
 70
     1
102
RTVSPropertyOp27
 70
     1
102
RTVSPropertyOp28
 70
     1
102
RTVSPropertyOp29
 70
     1
102
RTVSPropertyOp30
 70
     1
102
RTVSPropertyOp31
 70
     1
102
RTVSPropertyOp32
 70
     1
102
RTVSPropertyOp33
 70
     1
102
RTVSPropertyOp34
 70
     1
102
RTVSPropertyOp35
 70
     1
102
RTVSPropertyOp36
 70
     1
102
RTVSPropertyOp37
 70
     1
102
RTVSPropertyOp38
 70
     1
102
RTVSPropertyOp39
 70
     1
102
RTVSPropertyOp40
 70
     1
102
RTVSPropertyOp41
 70
     1
102
RTVSPropertyOp42
 70
     1
102
RTVSPropertyOp43
 70
     1
102
RTVSPropertyOp44
 70
     1
102
RTVSPropertyOp45
 70
     1
102
RTVSPropertyOp46
 70
     1
102
RTVSPropertyOp47
 70
     1
102
RTVSPropertyOp48
 70
     1
102
RTVSPropertyOp49
 70
     1
102
RTVSPropertyOp50
 70
     1
102
RTVSPropertyOp51
 70
     0
102
RTVSPropertyOp52
 70
     0
102
RTVSPropertyOp53
 70
     1
102
RTVSPropertyOp54
 70
     1
102
RTVSPropertyOp55
 70
     1
102
RTVSPropertyOp56
 70
     1
102
RTVSPropertyOp57
 70
     1
102
RTVSPost2010Prop28
280
     0
102
RTVSPost2010PropOp28
 70
     1
102
RTVSPost2010Prop29
280
     1
102
RTVSPost2010PropOp29
 70
     1
102
RTVSPost2010Prop30
280
     1
102
RTVSPost2010PropOp30
 70
     1
102
RTVSPost2010Prop31
280
     0
102
RTVSPost2010PropOp31
 70
     1
102
RTVSPost2010Prop32
280
     0
102
RTVSPost2010PropOp32
 70
     1
102
RTVSPost2010Prop33
280
     0
102
RTVSPost2010PropOp33
 70
     1
102
RTVSPost2010Prop34
280
     0
102
RTVSPost2010PropOp34
 70
     1
102
RTVSPost2010Prop35
280
     0
102
RTVSPost2010PropOp35
 70
     1
102
RTVSPost2010Prop36
280
     0
102
RTVSPost2010PropOp36
 70
     1
102
RTVSPost2010Prop37
 90
       50
102
RTVSPost2010PropOp37
 70
     1
102
RTVSPost2010Prop38
140
0.0
102
RTVSPost2010PropOp38
 70
     1
102
RTVSPost2010Prop39
140
1.0
102
RTVSPost2010PropOp39
 70
     1
102
RTVSPost2010Prop40
 90
        0
102
RTVSPost2010PropOp40
 70
     1
102
RTVSPost2010Prop41ColorIndex
 90
       18
102
RTVSPost2010Prop41ColorRGB
 90
        0
102
RTVSPost2010PropOp41
 70
     1
102
RTVSPost2010Prop42
 90
       50
102
RTVSPost2010PropOp42
 70
     1
102
RTVSPost2010Prop43
 90
        3
102
RTVSPost2010PropOp43
 70
     1
102
RTVSPost2010Prop44ColorIndex
 90
        5
102
RTVSPost2010Prop44ColorRGB
 90
      255
102
RTVSPost2010PropOp44
 70
     1
102
RTVSPost2010Prop45
280
     0
102
RTVSPost2010PropOp45
 70
     1
102
RTVSPost2010Prop46
 90
       50
102
RTVSPost2010PropOp46
 70
     1
102
RTVSPost2010Prop47
 90
       50
102
RTVSPost2010PropOp47
 70
     1
102
RTVSPost2010Prop48
 90
       50
102
RTVSPost2010PropOp48
 70
     1
102
RTVSPost2010Prop49
280
     0
102
RTVSPost2010PropOp49
 70
     1
102
RTVSPost2010Prop50
 90
       50
102
RTVSPost2010PropOp50
 70
     1
102
RTVSPost2010Prop51ColorIndex
 90
      256
102
RTVSPost2010Prop51ColorRGB
 90
-16777216
102
RTVSPost2010PropOp51
 70
     0
102
RTVSPost2010Prop52
140
1.0
102
RTVSPost2010PropOp52
 70
     0
102
RTVSPost2010Prop53
 90
        2
102
RTVSPost2010PropOp53
 70
     1
102
RTVSPost2010Prop54
  1
strokes_ogs.tif
102
RTVSPost2010PropOp54
 70
     1
102
RTVSPost2010Prop55
280
     0
102
RTVSPost2010PropOp55
 70
     1
102
RTVSPost2010Prop56
140
1.0
102
RTVSPost2010PropOp56
 70
     1
102
RTVSPost2010Prop57
140
1.0
102
RTVSPost2010PropOp57
 70
     1
  0
XRECORD
  5
CC
102
{ACAD_REACTORS
330
CB
102
}
330
CB
100
AcDbXrecord
280
     1
102
RTVSPropertyOp0
 70
     1
102
RTVSPropertyOp1
 70
     1
102
RTVSPropertyOp2
 70
     1
102
RTVSPropertyOp3
 70
     1
102
RTVSPropertyOp4
 70
     1
102
RTVSPropertyOp5
 70
     1
102
RTVSPropertyOp6
 70
     1
102
RTVSPropertyOp7
 70
     1
102
RTVSPropertyOp8
 70
     1
102
RTVSPropertyOp9
 70
     1
102
RTVSPropertyOp10
 70
     1
102
RTVSPropertyOp11
 70
     1
102
RTVSPropertyOp12
 70
     1
102
RTVSPropertyOp13
 70
     1
102
RTVSPropertyOp14
 70
     1
102
RTVSPropertyOp15
 70
     1
102
RTVSPropertyOp16
 70
     1
102
RTVSPropertyOp17
 70
     1
102
RTVSPropertyOp18
 70
     1
102
RTVSPropertyOp19
 70
     1
102
RTVSPropertyOp20
 70
     1
102
RTVSPropertyOp21
 70
     1
102
RTVSPropertyOp22
 70
     1
102
RTVSPropertyOp23
 70
     1
102
RTVSPropertyOp24
 70
     1
102
RTVSPropertyOp25
 70
     1
102
RTVSPropertyOp26
 70
     1
102
RTVSPropertyOp27
 70
     1
102
RTVSPropertyOp28
 70
     1
102
RTVSPropertyOp29
 70
     1
102
RTVSPropertyOp30
 70
     1
102
RTVSPropertyOp31
 70
     1
102
RTVSPropertyOp32
 70
     1
102
RTVSPropertyOp33
 70
     1
102
RTVSPropertyOp34
 70
     1
102
RTVSPropertyOp35
 70
     1
102
RTVSPropertyOp36
 70
     1
102
RTVSPropertyOp37
 70
     1
102
RTVSPropertyOp38
 70
     1
102
RTVSPropertyOp39
 70
     1
102
RTVSPropertyOp40
 70
     1
102
RTVSPropertyOp41
 70
     1
102
RTVSPropertyOp42
 70
     1
102
RTVSPropertyOp43
 70
     1
102
RTVSPropertyOp44
 70
     1
102
RTVSPropertyOp45
 70
     1
102
RTVSPropertyOp46
 70
     1
102
RTVSPropertyOp47
 70
     1
102
RTVSPropertyOp48
 70
     1
102
RTVSPropertyOp49
 70
     1
102
RTVSPropertyOp50
 70
     1
102
RTVSPropertyOp51
 70
     0
102
RTVSPropertyOp52
 70
     0
102
RTVSPropertyOp53
 70
     1
102
RTVSPropertyOp54
 70
     1
102
RTVSPropertyOp55
 70
     1
102
RTVSPropertyOp56
 70
     1
102
RTVSPropertyOp57
 70
     1
102
RTVSPost2010Prop28
280
     0
102
RTVSPost2010PropOp28
 70
     1
102
RTVSPost2010Prop29
280
     1
102
RTVSPost2010PropOp29
 70
     1
102
RTVSPost2010Prop30
280
     1
102
RTVSPost2010PropOp30
 70
     1
102
RTVSPost2010Prop31
280
     0
102
RTVSPost2010PropOp31
 70
     1
102
RTVSPost2010Prop32
280
     0
102
RTVSPost2010PropOp32
 70
     1
102
RTVSPost2010Prop33
280
     0
102
RTVSPost2010PropOp33
 70
     1
102
RTVSPost2010Prop34
280
     0
102
RTVSPost2010PropOp34
 70
     1
102
RTVSPost2010Prop35
280
     0
102
RTVSPost2010PropOp35
 70
     1
102
RTVSPost2010Prop36
280
     0
102
RTVSPost2010PropOp36
 70
     1
102
RTVSPost2010Prop37
 90
       50
102
RTVSPost2010PropOp37
 70
     1
102
RTVSPost2010Prop38
140
0.0
102
RTVSPost2010PropOp38
 70
     1
102
RTVSPost2010Prop39
140
1.0
102
RTVSPost2010PropOp39
 70
     1
102
RTVSPost2010Prop40
 90
        0
102
RTVSPost2010PropOp40
 70
     1
102
RTVSPost2010Prop41ColorIndex
 90
       18
102
RTVSPost2010Prop41ColorRGB
 90
        0
102
RTVSPost2010PropOp41
 70
     1
102
RTVSPost2010Prop42
 90
       50
102
RTVSPost2010PropOp42
 70
     1
102
RTVSPost2010Prop43
 90
        3
102
RTVSPost2010PropOp43
 70
     1
102
RTVSPost2010Prop44ColorIndex
 90
        5
102
RTVSPost2010Prop44ColorRGB
 90
      255
102
RTVSPost2010PropOp44
 70
     1
102
RTVSPost2010Prop45
280
     0
102
RTVSPost2010PropOp45
 70
     1
102
RTVSPost2010Prop46
 90
       50
102
RTVSPost2010PropOp46
 70
     1
102
RTVSPost2010Prop47
 90
       50
102
RTVSPost2010PropOp47
 70
     1
102
RTVSPost2010Prop48
 90
       50
102
RTVSPost2010PropOp48
 70
     1
102
RTVSPost2010Prop49
280
     0
102
RTVSPost2010PropOp49
 70
     1
102
RTVSPost2010Prop50
 90
       50
102
RTVSPost2010PropOp50
 70
     1
102
RTVSPost2010Prop51ColorIndex
 90
      256
102
RTVSPost2010Prop51ColorRGB
 90
-16777216
102
RTVSPost2010PropOp51
 70
     0
102
RTVSPost2010Prop52
140
1.0
102
RTVSPost2010PropOp52
 70
     0
102
RTVSPost2010Prop53
 90
        2
102
RTVSPost2010PropOp53
 70
     1
102
RTVSPost2010Prop54
  1
strokes_ogs.tif
102
RTVSPost2010PropOp54
 70
     1
102
RTVSPost2010Prop55
280
     0
102
RTVSPost2010PropOp55
 70
     1
102
RTVSPost2010Prop56
140
1.0
102
RTVSPost2010PropOp56
 70
     1
102
RTVSPost2010Prop57
140
1.0
102
RTVSPost2010PropOp57
 70
     1
  0
XRECORD
  5
C0
102
{ACAD_REACTORS
330
BF
102
}
330
BF
100
AcDbXrecord
280
     1
102
RTVSPropertyOp0
 70
     1
102
RTVSPropertyOp1
 70
     1
102
RTVSPropertyOp2
 70
     1
102
RTVSPropertyOp3
 70
     1
102
RTVSPropertyOp4
 70
     1
102
RTVSPropertyOp5
 70
     1
102
RTVSPropertyOp6
 70
     1
102
RTVSPropertyOp7
 70
     1
102
RTVSPropertyOp8
 70
     1
102
RTVSPropertyOp9
 70
     1
102
RTVSPropertyOp10
 70
     1
102
RTVSPropertyOp11
 70
     1
102
RTVSPropertyOp12
 70
     1
102
RTVSPropertyOp13
 70
     1
102
RTVSPropertyOp14
 70
     1
102
RTVSPropertyOp15
 70
     1
102
RTVSPropertyOp16
 70
     1
102
RTVSPropertyOp17
 70
     1
102
RTVSPropertyOp18
 70
     1
102
RTVSPropertyOp19
 70
     1
102
RTVSPropertyOp20
 70
     1
102
RTVSPropertyOp21
 70
     1
102
RTVSPropertyOp22
 70
     1
102
RTVSPropertyOp23
 70
     1
102
RTVSPropertyOp24
 70
     1
102
RTVSPropertyOp25
 70
     1
102
RTVSPropertyOp26
 70
     1
102
RTVSPropertyOp27
 70
     1
102
RTVSPropertyOp28
 70
     1
102
RTVSPropertyOp29
 70
     1
102
RTVSPropertyOp30
 70
     1
102
RTVSPropertyOp31
 70
     1
102
RTVSPropertyOp32
 70
     1
102
RTVSPropertyOp33
 70
     1
102
RTVSPropertyOp34
 70
     1
102
RTVSPropertyOp35
 70
     1
102
RTVSPropertyOp36
 70
     1
102
RTVSPropertyOp37
 70
     1
102
RTVSPropertyOp38
 70
     1
102
RTVSPropertyOp39
 70
     1
102
RTVSPropertyOp40
 70
     1
102
RTVSPropertyOp41
 70
     1
102
RTVSPropertyOp42
 70
     1
102
RTVSPropertyOp43
 70
     1
102
RTVSPropertyOp44
 70
     1
102
RTVSPropertyOp45
 70
     1
102
RTVSPropertyOp46
 70
     1
102
RTVSPropertyOp47
 70
     1
102
RTVSPropertyOp48
 70
     1
102
RTVSPropertyOp49
 70
     1
102
RTVSPropertyOp50
 70
     1
102
RTVSPropertyOp51
 70
     0
102
RTVSPropertyOp52
 70
     0
102
RTVSPropertyOp53
 70
     1
102
RTVSPropertyOp54
 70
     1
102
RTVSPropertyOp55
 70
     1
102
RTVSPropertyOp56
 70
     1
102
RTVSPropertyOp57
 70
     1
102
RTVSPost2010Prop28
280
     0
102
RTVSPost2010PropOp28
 70
     1
102
RTVSPost2010Prop29
280
     1
102
RTVSPost2010PropOp29
 70
     1
102
RTVSPost2010Prop30
280
     1
102
RTVSPost2010PropOp30
 70
     1
102
RTVSPost2010Prop31
280
     0
102
RTVSPost2010PropOp31
 70
     1
102
RTVSPost2010Prop32
280
     0
102
RTVSPost2010PropOp32
 70
     1
102
RTVSPost2010Prop33
280
     0
102
RTVSPost2010PropOp33
 70
     1
102
RTVSPost2010Prop34
280
     0
102
RTVSPost2010PropOp34
 70
     1
102
RTVSPost2010Prop35
280
     0
102
RTVSPost2010PropOp35
 70
     1
102
RTVSPost2010Prop36
280
     0
102
RTVSPost2010PropOp36
 70
     1
102
RTVSPost2010Prop37
 90
       50
102
RTVSPost2010PropOp37
 70
     1
102
RTVSPost2010Prop38
140
0.0
102
RTVSPost2010PropOp38
 70
     1
102
RTVSPost2010Prop39
140
1.0
102
RTVSPost2010PropOp39
 70
     1
102
RTVSPost2010Prop40
 90
        0
102
RTVSPost2010PropOp40
 70
     1
102
RTVSPost2010Prop41ColorIndex
 90
       18
102
RTVSPost2010Prop41ColorRGB
 90
        0
102
RTVSPost2010PropOp41
 70
     1
102
RTVSPost2010Prop42
 90
       50
102
RTVSPost2010PropOp42
 70
     1
102
RTVSPost2010Prop43
 90
        3
102
RTVSPost2010PropOp43
 70
     1
102
RTVSPost2010Prop44ColorIndex
 90
        5
102
RTVSPost2010Prop44ColorRGB
 90
      255
102
RTVSPost2010PropOp44
 70
     1
102
RTVSPost2010Prop45
280
     0
102
RTVSPost2010PropOp45
 70
     1
102
RTVSPost2010Prop46
 90
       50
102
RTVSPost2010PropOp46
 70
     1
102
RTVSPost2010Prop47
 90
       50
102
RTVSPost2010PropOp47
 70
     1
102
RTVSPost2010Prop48
 90
       50
102
RTVSPost2010PropOp48
 70
     1
102
RTVSPost2010Prop49
280
     0
102
RTVSPost2010PropOp49
 70
     1
102
RTVSPost2010Prop50
 90
       50
102
RTVSPost2010PropOp50
 70
     1
102
RTVSPost2010Prop51ColorIndex
 90
      256
102
RTVSPost2010Prop51ColorRGB
 90
-16777216
102
RTVSPost2010PropOp51
 70
     0
102
RTVSPost2010Prop52
140
1.0
102
RTVSPost2010PropOp52
 70
     0
102
RTVSPost2010Prop53
 90
        2
102
RTVSPost2010PropOp53
 70
     1
102
RTVSPost2010Prop54
  1
strokes_ogs.tif
102
RTVSPost2010PropOp54
 70
     1
102
RTVSPost2010Prop55
280
     0
102
RTVSPost2010PropOp55
 70
     1
102
RTVSPost2010Prop56
140
1.0
102
RTVSPost2010PropOp56
 70
     1
102
RTVSPost2010Prop57
140
1.0
102
RTVSPost2010PropOp57
 70
     1
  0
XRECORD
  5
C2
102
{ACAD_REACTORS
330
C1
102
}
330
C1
100
AcDbXrecord
280
     1
102
RTVSPropertyOp0
 70
     1
102
RTVSPropertyOp1
 70
     1
102
RTVSPropertyOp2
 70
     1
102
RTVSPropertyOp3
 70
     1
102
RTVSPropertyOp4
 70
     1
102
RTVSPropertyOp5
 70
     1
102
RTVSPropertyOp6
 70
     1
102
RTVSPropertyOp7
 70
     1
102
RTVSPropertyOp8
 70
     1
102
RTVSPropertyOp9
 70
     1
102
RTVSPropertyOp10
 70
     1
102
RTVSPropertyOp11
 70
     1
102
RTVSPropertyOp12
 70
     1
102
RTVSPropertyOp13
 70
     1
102
RTVSPropertyOp14
 70
     1
102
RTVSPropertyOp15
 70
     1
102
RTVSPropertyOp16
 70
     1
102
RTVSPropertyOp17
 70
     1
102
RTVSPropertyOp18
 70
     1
102
RTVSPropertyOp19
 70
     1
102
RTVSPropertyOp20
 70
     1
102
RTVSPropertyOp21
 70
     1
102
RTVSPropertyOp22
 70
     1
102
RTVSPropertyOp23
 70
     1
102
RTVSPropertyOp24
 70
     1
102
RTVSPropertyOp25
 70
     1
102
RTVSPropertyOp26
 70
     1
102
RTVSPropertyOp27
 70
     1
102
RTVSPropertyOp28
 70
     1
102
RTVSPropertyOp29
 70
     1
102
RTVSPropertyOp30
 70
     1
102
RTVSPropertyOp31
 70
     1
102
RTVSPropertyOp32
 70
     1
102
RTVSPropertyOp33
 70
     1
102
RTVSPropertyOp34
 70
     1
102
RTVSPropertyOp35
 70
     1
102
RTVSPropertyOp36
 70
     1
102
RTVSPropertyOp37
 70
     1
102
RTVSPropertyOp38
 70
     1
102
RTVSPropertyOp39
 70
     1
102
RTVSPropertyOp40
 70
     1
102
RTVSPropertyOp41
 70
     1
102
RTVSPropertyOp42
 70
     1
102
RTVSPropertyOp43
 70
     1
102
RTVSPropertyOp44
 70
     1
102
RTVSPropertyOp45
 70
     1
102
RTVSPropertyOp46
 70
     1
102
RTVSPropertyOp47
 70
     1
102
RTVSPropertyOp48
 70
     1
102
RTVSPropertyOp49
 70
     1
102
RTVSPropertyOp50
 70
     1
102
RTVSPropertyOp51
 70
     0
102
RTVSPropertyOp52
 70
     0
102
RTVSPropertyOp53
 70
     1
102
RTVSPropertyOp54
 70
     1
102
RTVSPropertyOp55
 70
     1
102
RTVSPropertyOp56
 70
     1
102
RTVSPropertyOp57
 70
     1
102
RTVSPost2010Prop28
280
     0
102
RTVSPost2010PropOp28
 70
     1
102
RTVSPost2010Prop29
280
     1
102
RTVSPost2010PropOp29
 70
     1
102
RTVSPost2010Prop30
280
     1
102
RTVSPost2010PropOp30
 70
     1
102
RTVSPost2010Prop31
280
     0
102
RTVSPost2010PropOp31
 70
     1
102
RTVSPost2010Prop32
280
     0
102
RTVSPost2010PropOp32
 70
     1
102
RTVSPost2010Prop33
280
     0
102
RTVSPost2010PropOp33
 70
     1
102
RTVSPost2010Prop34
280
     0
102
RTVSPost2010PropOp34
 70
     1
102
RTVSPost2010Prop35
280
     0
102
RTVSPost2010PropOp35
 70
     1
102
RTVSPost2010Prop36
280
     0
102
RTVSPost2010PropOp36
 70
     1
102
RTVSPost2010Prop37
 90
       50
102
RTVSPost2010PropOp37
 70
     1
102
RTVSPost2010Prop38
140
0.0
102
RTVSPost2010PropOp38
 70
     1
102
RTVSPost2010Prop39
140
1.0
102
RTVSPost2010PropOp39
 70
     1
102
RTVSPost2010Prop40
 90
        0
102
RTVSPost2010PropOp40
 70
     1
102
RTVSPost2010Prop41ColorIndex
 90
       18
102
RTVSPost2010Prop41ColorRGB
 90
        0
102
RTVSPost2010PropOp41
 70
     1
102
RTVSPost2010Prop42
 90
       50
102
RTVSPost2010PropOp42
 70
     1
102
RTVSPost2010Prop43
 90
        3
102
RTVSPost2010PropOp43
 70
     1
102
RTVSPost2010Prop44ColorIndex
 90
        5
102
RTVSPost2010Prop44ColorRGB
 90
      255
102
RTVSPost2010PropOp44
 70
     1
102
RTVSPost2010Prop45
280
     0
102
RTVSPost2010PropOp45
 70
     1
102
RTVSPost2010Prop46
 90
       50
102
RTVSPost2010PropOp46
 70
     1
102
RTVSPost2010Prop47
 90
       50
102
RTVSPost2010PropOp47
 70
     1
102
RTVSPost2010Prop48
 90
       50
102
RTVSPost2010PropOp48
 70
     1
102
RTVSPost2010Prop49
280
     0
102
RTVSPost2010PropOp49
 70
     1
102
RTVSPost2010Prop50
 90
       50
102
RTVSPost2010PropOp50
 70
     1
102
RTVSPost2010Prop51ColorIndex
 90
      256
102
RTVSPost2010Prop51ColorRGB
 90
-16777216
102
RTVSPost2010PropOp51
 70
     0
102
RTVSPost2010Prop52
140
1.0
102
RTVSPost2010PropOp52
 70
     0
102
RTVSPost2010Prop53
 90
        2
102
RTVSPost2010PropOp53
 70
     1
102
RTVSPost2010Prop54
  1
strokes_ogs.tif
102
RTVSPost2010PropOp54
 70
     1
102
RTVSPost2010Prop55
280
     0
102
RTVSPost2010PropOp55
 70
     1
102
RTVSPost2010Prop56
140
1.0
102
RTVSPost2010PropOp56
 70
     1
102
RTVSPost2010Prop57
140
1.0
102
RTVSPost2010PropOp57
 70
     1
  0
XRECORD
  5
D2
102
{ACAD_REACTORS
330
D1
102
}
330
D1
100
AcDbXrecord
280
     1
102
RTVSPropertyOp0
 70
     0
102
RTVSPropertyOp1
 70
     0
102
RTVSPropertyOp2
 70
     0
102
RTVSPropertyOp3
 70
     0
102
RTVSPropertyOp4
 70
     0
102
RTVSPropertyOp5
 70
     0
102
RTVSPropertyOp6
 70
     0
102
RTVSPropertyOp7
 70
     0
102
RTVSPropertyOp8
 70
     0
102
RTVSPropertyOp9
 70
     0
102
RTVSPropertyOp10
 70
     0
102
RTVSPropertyOp11
 70
     0
102
RTVSPropertyOp12
 70
     0
102
RTVSPropertyOp13
 70
     0
102
RTVSPropertyOp14
 70
     2
102
RTVSPropertyOp15
 70
     0
102
RTVSPropertyOp16
 70
     0
102
RTVSPropertyOp17
 70
     0
102
RTVSPropertyOp18
 70
     0
102
RTVSPropertyOp19
 70
     0
102
RTVSPropertyOp20
 70
     0
102
RTVSPropertyOp21
 70
     0
102
RTVSPropertyOp22
 70
     0
102
RTVSPropertyOp23
 70
     0
102
RTVSPropertyOp24
 70
     0
102
RTVSPropertyOp25
 70
     0
102
RTVSPropertyOp26
 70
     0
102
RTVSPropertyOp27
 70
     0
102
RTVSPropertyOp28
 70
     0
102
RTVSPropertyOp29
 70
     0
102
RTVSPropertyOp30
 70
     0
102
RTVSPropertyOp31
 70
     0
102
RTVSPropertyOp32
 70
     0
102
RTVSPropertyOp33
 70
     0
102
RTVSPropertyOp34
 70
     0
102
RTVSPropertyOp35
 70
     0
102
RTVSPropertyOp36
 70
     0
102
RTVSPropertyOp37
 70
     0
102
RTVSPropertyOp38
 70
     0
102
RTVSPropertyOp39
 70
     0
102
RTVSPropertyOp40
 70
     0
102
RTVSPropertyOp41
 70
     0
102
RTVSPropertyOp42
 70
     0
102
RTVSPropertyOp43
 70
     0
102
RTVSPropertyOp44
 70
     0
102
RTVSPropertyOp45
 70
     0
102
RTVSPropertyOp46
 70
     0
102
RTVSPropertyOp47
 70
     0
102
RTVSPropertyOp48
 70
     0
102
RTVSPropertyOp49
 70
     0
102
RTVSPropertyOp50
 70
     0
102
RTVSPropertyOp51
 70
     0
102
RTVSPropertyOp52
 70
     0
102
RTVSPropertyOp53
 70
     0
102
RTVSPropertyOp54
 70
     0
102
RTVSPropertyOp55
 70
     0
102
RTVSPropertyOp56
 70
     0
102
RTVSPropertyOp57
 70
     0
102
RTVSPost2010Prop28
280
     0
102
RTVSPost2010PropOp28
 70
     0
102
RTVSPost2010Prop29
280
     1
102
RTVSPost2010PropOp29
 70
     0
102
RTVSPost2010Prop30
280
     1
102
RTVSPost2010PropOp30
 70
     0
102
RTVSPost2010Prop31
280
     0
102
RTVSPost2010PropOp31
 70
     0
102
RTVSPost2010Prop32
280
     0
102
RTVSPost2010PropOp32
 70
     0
102
RTVSPost2010Prop33
280
     0
102
RTVSPost2010PropOp33
 70
     0
102
RTVSPost2010Prop34
280
     0
102
RTVSPost2010PropOp34
 70
     0
102
RTVSPost2010Prop35
280
     0
102
RTVSPost2010PropOp35
 70
     0
102
RTVSPost2010Prop36
280
     0
102
RTVSPost2010PropOp36
 70
     0
102
RTVSPost2010Prop37
 90
       50
102
RTVSPost2010PropOp37
 70
     0
102
RTVSPost2010Prop38
140
0.0
102
RTVSPost2010PropOp38
 70
     0
102
RTVSPost2010Prop39
140
1.0
102
RTVSPost2010PropOp39
 70
     0
102
RTVSPost2010Prop40
 90
        0
102
RTVSPost2010PropOp40
 70
     0
102
RTVSPost2010Prop41ColorIndex
 90
       18
102
RTVSPost2010Prop41ColorRGB
 90
        0
102
RTVSPost2010PropOp41
 70
     0
102
RTVSPost2010Prop42
 90
       50
102
RTVSPost2010PropOp42
 70
     0
102
RTVSPost2010Prop43
 90
        3
102
RTVSPost2010PropOp43
 70
     0
102
RTVSPost2010Prop44ColorIndex
 90
        5
102
RTVSPost2010Prop44ColorRGB
 90
      255
102
RTVSPost2010PropOp44
 70
     0
102
RTVSPost2010Prop45
280
     0
102
RTVSPost2010PropOp45
 70
     0
102
RTVSPost2010Prop46
 90
       50
102
RTVSPost2010PropOp46
 70
     0
102
RTVSPost2010Prop47
 90
       50
102
RTVSPost2010PropOp47
 70
     0
102
RTVSPost2010Prop48
 90
       50
102
RTVSPost2010PropOp48
 70
     0
102
RTVSPost2010Prop49
280
     0
102
RTVSPost2010PropOp49
 70
     0
102
RTVSPost2010Prop50
 90
       50
102
RTVSPost2010PropOp50
 70
     0
102
RTVSPost2010Prop51ColorIndex
 90
      256
102
RTVSPost2010Prop51ColorRGB
 90
-16777216
102
RTVSPost2010PropOp51
 70
     0
102
RTVSPost2010Prop52
140
1.0
102
RTVSPost2010PropOp52
 70
     0
102
RTVSPost2010Prop53
 90
        2
102
RTVSPost2010PropOp53
 70
     0
102
RTVSPost2010Prop54
  1
strokes_ogs.tif
102
RTVSPost2010PropOp54
 70
     0
102
RTVSPost2010Prop55
280
     0
102
RTVSPost2010PropOp55
 70
     0
102
RTVSPost2010Prop56
140
1.0
102
RTVSPost2010PropOp56
 70
     0
102
RTVSPost2010Prop57
140
1.0
102
RTVSPost2010PropOp57
 70
     0
  0
XRECORD
  5
CA
102
{ACAD_REACTORS
330
C9
102
}
330
C9
100
AcDbXrecord
280
     1
102
RTVSPropertyOp0
 70
     1
102
RTVSPropertyOp1
 70
     1
102
RTVSPropertyOp2
 70
     1
102
RTVSPropertyOp3
 70
     1
102
RTVSPropertyOp4
 70
     1
102
RTVSPropertyOp5
 70
     1
102
RTVSPropertyOp6
 70
     1
102
RTVSPropertyOp7
 70
     1
102
RTVSPropertyOp8
 70
     1
102
RTVSPropertyOp9
 70
     1
102
RTVSPropertyOp10
 70
     1
102
RTVSPropertyOp11
 70
     1
102
RTVSPropertyOp12
 70
     1
102
RTVSPropertyOp13
 70
     1
102
RTVSPropertyOp14
 70
     1
102
RTVSPropertyOp15
 70
     1
102
RTVSPropertyOp16
 70
     1
102
RTVSPropertyOp17
 70
     1
102
RTVSPropertyOp18
 70
     1
102
RTVSPropertyOp19
 70
     1
102
RTVSPropertyOp20
 70
     1
102
RTVSPropertyOp21
 70
     1
102
RTVSPropertyOp22
 70
     1
102
RTVSPropertyOp23
 70
     1
102
RTVSPropertyOp24
 70
     1
102
RTVSPropertyOp25
 70
     1
102
RTVSPropertyOp26
 70
     1
102
RTVSPropertyOp27
 70
     1
102
RTVSPropertyOp28
 70
     1
102
RTVSPropertyOp29
 70
     1
102
RTVSPropertyOp30
 70
     1
102
RTVSPropertyOp31
 70
     1
102
RTVSPropertyOp32
 70
     1
102
RTVSPropertyOp33
 70
     1
102
RTVSPropertyOp34
 70
     1
102
RTVSPropertyOp35
 70
     1
102
RTVSPropertyOp36
 70
     1
102
RTVSPropertyOp37
 70
     1
102
RTVSPropertyOp38
 70
     1
102
RTVSPropertyOp39
 70
     1
102
RTVSPropertyOp40
 70
     1
102
RTVSPropertyOp41
 70
     1
102
RTVSPropertyOp42
 70
     1
102
RTVSPropertyOp43
 70
     1
102
RTVSPropertyOp44
 70
     1
102
RTVSPropertyOp45
 70
     1
102
RTVSPropertyOp46
 70
     1
102
RTVSPropertyOp47
 70
     1
102
RTVSPropertyOp48
 70
     1
102
RTVSPropertyOp49
 70
     1
102
RTVSPropertyOp50
 70
     1
102
RTVSPropertyOp51
 70
     0
102
RTVSPropertyOp52
 70
     0
102
RTVSPropertyOp53
 70
     1
102
RTVSPropertyOp54
 70
     1
102
RTVSPropertyOp55
 70
     1
102
RTVSPropertyOp56
 70
     1
102
RTVSPropertyOp57
 70
     1
102
RTVSPost2010Prop28
280
     0
102
RTVSPost2010PropOp28
 70
     1
102
RTVSPost2010Prop29
280
     1
102
RTVSPost2010PropOp29
 70
     1
102
RTVSPost2010Prop30
280
     1
102
RTVSPost2010PropOp30
 70
     1
102
RTVSPost2010Prop31
280
     0
102
RTVSPost2010PropOp31
 70
     1
102
RTVSPost2010Prop32
280
     0
102
RTVSPost2010PropOp32
 70
     1
102
RTVSPost2010Prop33
280
     0
102
RTVSPost2010PropOp33
 70
     1
102
RTVSPost2010Prop34
280
     0
102
RTVSPost2010PropOp34
 70
     1
102
RTVSPost2010Prop35
280
     0
102
RTVSPost2010PropOp35
 70
     1
102
RTVSPost2010Prop36
280
     0
102
RTVSPost2010PropOp36
 70
     1
102
RTVSPost2010Prop37
 90
       50
102
RTVSPost2010PropOp37
 70
     1
102
RTVSPost2010Prop38
140
0.0
102
RTVSPost2010PropOp38
 70
     1
102
RTVSPost2010Prop39
140
1.0
102
RTVSPost2010PropOp39
 70
     1
102
RTVSPost2010Prop40
 90
        0
102
RTVSPost2010PropOp40
 70
     1
102
RTVSPost2010Prop41ColorIndex
 90
       18
102
RTVSPost2010Prop41ColorRGB
 90
        0
102
RTVSPost2010PropOp41
 70
     1
102
RTVSPost2010Prop42
 90
       50
102
RTVSPost2010PropOp42
 70
     1
102
RTVSPost2010Prop43
 90
        3
102
RTVSPost2010PropOp43
 70
     1
102
RTVSPost2010Prop44ColorIndex
 90
        5
102
RTVSPost2010Prop44ColorRGB
 90
      255
102
RTVSPost2010PropOp44
 70
     1
102
RTVSPost2010Prop45
280
     0
102
RTVSPost2010PropOp45
 70
     1
102
RTVSPost2010Prop46
 90
       50
102
RTVSPost2010PropOp46
 70
     1
102
RTVSPost2010Prop47
 90
       50
102
RTVSPost2010PropOp47
 70
     1
102
RTVSPost2010Prop48
 90
       50
102
RTVSPost2010PropOp48
 70
     1
102
RTVSPost2010Prop49
280
     0
102
RTVSPost2010PropOp49
 70
     1
102
RTVSPost2010Prop50
 90
       50
102
RTVSPost2010PropOp50
 70
     1
102
RTVSPost2010Prop51ColorIndex
 90
      256
102
RTVSPost2010Prop51ColorRGB
 90
-16777216
102
RTVSPost2010PropOp51
 70
     0
102
RTVSPost2010Prop52
140
1.0
102
RTVSPost2010PropOp52
 70
     0
102
RTVSPost2010Prop53
 90
        2
102
RTVSPost2010PropOp53
 70
     1
102
RTVSPost2010Prop54
  1
strokes_ogs.tif
102
RTVSPost2010PropOp54
 70
     1
102
RTVSPost2010Prop55
280
     0
102
RTVSPost2010PropOp55
 70
     1
102
RTVSPost2010Prop56
140
1.0
102
RTVSPost2010PropOp56
 70
     1
102
RTVSPost2010Prop57
140
1.0
102
RTVSPost2010PropOp57
 70
     1
  0
XRECORD
  5
AE
102
{ACAD_REACTORS
330
AD
102
}
330
AD
100
AcDbXrecord
280
     1
102
RTVSPropertyOp0
 70
     1
102
RTVSPropertyOp1
 70
     1
102
RTVSPropertyOp2
 70
     1
102
RTVSPropertyOp3
 70
     1
102
RTVSPropertyOp4
 70
     1
102
RTVSPropertyOp5
 70
     1
102
RTVSPropertyOp6
 70
     1
102
RTVSPropertyOp7
 70
     1
102
RTVSPropertyOp8
 70
     1
102
RTVSPropertyOp9
 70
     1
102
RTVSPropertyOp10
 70
     1
102
RTVSPropertyOp11
 70
     1
102
RTVSPropertyOp12
 70
     1
102
RTVSPropertyOp13
 70
     1
102
RTVSPropertyOp14
 70
     1
102
RTVSPropertyOp15
 70
     1
102
RTVSPropertyOp16
 70
     1
102
RTVSPropertyOp17
 70
     1
102
RTVSPropertyOp18
 70
     1
102
RTVSPropertyOp19
 70
     1
102
RTVSPropertyOp20
 70
     1
102
RTVSPropertyOp21
 70
     1
102
RTVSPropertyOp22
 70
     1
102
RTVSPropertyOp23
 70
     1
102
RTVSPropertyOp24
 70
     1
102
RTVSPropertyOp25
 70
     1
102
RTVSPropertyOp26
 70
     1
102
RTVSPropertyOp27
 70
     1
102
RTVSPropertyOp28
 70
     1
102
RTVSPropertyOp29
 70
     1
102
RTVSPropertyOp30
 70
     1
102
RTVSPropertyOp31
 70
     1
102
RTVSPropertyOp32
 70
     1
102
RTVSPropertyOp33
 70
     1
102
RTVSPropertyOp34
 70
     1
102
RTVSPropertyOp35
 70
     1
102
RTVSPropertyOp36
 70
     1
102
RTVSPropertyOp37
 70
     1
102
RTVSPropertyOp38
 70
     1
102
RTVSPropertyOp39
 70
     1
102
RTVSPropertyOp40
 70
     1
102
RTVSPropertyOp41
 70
     1
102
RTVSPropertyOp42
 70
     1
102
RTVSPropertyOp43
 70
     1
102
RTVSPropertyOp44
 70
     1
102
RTVSPropertyOp45
 70
     1
102
RTVSPropertyOp46
 70
     1
102
RTVSPropertyOp47
 70
     1
102
RTVSPropertyOp48
 70
     1
102
RTVSPropertyOp49
 70
     1
102
RTVSPropertyOp50
 70
     1
102
RTVSPropertyOp51
 70
     0
102
RTVSPropertyOp52
 70
     0
102
RTVSPropertyOp53
 70
     1
102
RTVSPropertyOp54
 70
     1
102
RTVSPropertyOp55
 70
     1
102
RTVSPropertyOp56
 70
     1
102
RTVSPropertyOp57
 70
     1
102
RTVSPost2010Prop28
280
     0
102
RTVSPost2010PropOp28
 70
     1
102
RTVSPost2010Prop29
280
     1
102
RTVSPost2010PropOp29
 70
     1
102
RTVSPost2010Prop30
280
     1
102
RTVSPost2010PropOp30
 70
     1
102
RTVSPost2010Prop31
280
     0
102
RTVSPost2010PropOp31
 70
     1
102
RTVSPost2010Prop32
280
     0
102
RTVSPost2010PropOp32
 70
     1
102
RTVSPost2010Prop33
280
     0
102
RTVSPost2010PropOp33
 70
     1
102
RTVSPost2010Prop34
280
     0
102
RTVSPost2010PropOp34
 70
     1
102
RTVSPost2010Prop35
280
     0
102
RTVSPost2010PropOp35
 70
     1
102
RTVSPost2010Prop36
280
     0
102
RTVSPost2010PropOp36
 70
     1
102
RTVSPost2010Prop37
 90
       50
102
RTVSPost2010PropOp37
 70
     1
102
RTVSPost2010Prop38
140
0.0
102
RTVSPost2010PropOp38
 70
     1
102
RTVSPost2010Prop39
140
1.0
102
RTVSPost2010PropOp39
 70
     1
102
RTVSPost2010Prop40
 90
        0
102
RTVSPost2010PropOp40
 70
     1
102
RTVSPost2010Prop41ColorIndex
 90
       18
102
RTVSPost2010Prop41ColorRGB
 90
        0
102
RTVSPost2010PropOp41
 70
     1
102
RTVSPost2010Prop42
 90
       50
102
RTVSPost2010PropOp42
 70
     1
102
RTVSPost2010Prop43
 90
        3
102
RTVSPost2010PropOp43
 70
     1
102
RTVSPost2010Prop44ColorIndex
 90
        5
102
RTVSPost2010Prop44ColorRGB
 90
      255
102
RTVSPost2010PropOp44
 70
     1
102
RTVSPost2010Prop45
280
     0
102
RTVSPost2010PropOp45
 70
     1
102
RTVSPost2010Prop46
 90
       50
102
RTVSPost2010PropOp46
 70
     1
102
RTVSPost2010Prop47
 90
       50
102
RTVSPost2010PropOp47
 70
     1
102
RTVSPost2010Prop48
 90
       50
102
RTVSPost2010PropOp48
 70
     1
102
RTVSPost2010Prop49
280
     0
102
RTVSPost2010PropOp49
 70
     1
102
RTVSPost2010Prop50
 90
       50
102
RTVSPost2010PropOp50
 70
     1
102
RTVSPost2010Prop51ColorIndex
 90
      256
102
RTVSPost2010Prop51ColorRGB
 90
-16777216
102
RTVSPost2010PropOp51
 70
     0
102
RTVSPost2010Prop52
140
1.0
102
RTVSPost2010PropOp52
 70
     0
102
RTVSPost2010Prop53
 90
        2
102
RTVSPost2010PropOp53
 70
     1
102
RTVSPost2010Prop54
  1
strokes_ogs.tif
102
RTVSPost2010PropOp54
 70
     1
102
RTVSPost2010Prop55
280
     0
102
RTVSPost2010PropOp55
 70
     1
102
RTVSPost2010Prop56
140
1.0
102
RTVSPost2010PropOp56
 70
     1
102
RTVSPost2010Prop57
140
1.0
102
RTVSPost2010PropOp57
 70
     1
  0
XRECORD
  5
B0
102
{ACAD_REACTORS
330
AF
102
}
330
AF
100
AcDbXrecord
280
     1
102
RTVSPropertyOp0
 70
     1
102
RTVSPropertyOp1
 70
     1
102
RTVSPropertyOp2
 70
     1
102
RTVSPropertyOp3
 70
     1
102
RTVSPropertyOp4
 70
     1
102
RTVSPropertyOp5
 70
     1
102
RTVSPropertyOp6
 70
     1
102
RTVSPropertyOp7
 70
     1
102
RTVSPropertyOp8
 70
     1
102
RTVSPropertyOp9
 70
     1
102
RTVSPropertyOp10
 70
     1
102
RTVSPropertyOp11
 70
     1
102
RTVSPropertyOp12
 70
     1
102
RTVSPropertyOp13
 70
     1
102
RTVSPropertyOp14
 70
     1
102
RTVSPropertyOp15
 70
     1
102
RTVSPropertyOp16
 70
     1
102
RTVSPropertyOp17
 70
     1
102
RTVSPropertyOp18
 70
     1
102
RTVSPropertyOp19
 70
     1
102
RTVSPropertyOp20
 70
     1
102
RTVSPropertyOp21
 70
     1
102
RTVSPropertyOp22
 70
     1
102
RTVSPropertyOp23
 70
     1
102
RTVSPropertyOp24
 70
     1
102
RTVSPropertyOp25
 70
     1
102
RTVSPropertyOp26
 70
     1
102
RTVSPropertyOp27
 70
     1
102
RTVSPropertyOp28
 70
     1
102
RTVSPropertyOp29
 70
     1
102
RTVSPropertyOp30
 70
     1
102
RTVSPropertyOp31
 70
     1
102
RTVSPropertyOp32
 70
     1
102
RTVSPropertyOp33
 70
     1
102
RTVSPropertyOp34
 70
     1
102
RTVSPropertyOp35
 70
     1
102
RTVSPropertyOp36
 70
     1
102
RTVSPropertyOp37
 70
     1
102
RTVSPropertyOp38
 70
     1
102
RTVSPropertyOp39
 70
     1
102
RTVSPropertyOp40
 70
     1
102
RTVSPropertyOp41
 70
     1
102
RTVSPropertyOp42
 70
     1
102
RTVSPropertyOp43
 70
     1
102
RTVSPropertyOp44
 70
     1
102
RTVSPropertyOp45
 70
     1
102
RTVSPropertyOp46
 70
     1
102
RTVSPropertyOp47
 70
     1
102
RTVSPropertyOp48
 70
     1
102
RTVSPropertyOp49
 70
     1
102
RTVSPropertyOp50
 70
     1
102
RTVSPropertyOp51
 70
     0
102
RTVSPropertyOp52
 70
     0
102
RTVSPropertyOp53
 70
     1
102
RTVSPropertyOp54
 70
     1
102
RTVSPropertyOp55
 70
     1
102
RTVSPropertyOp56
 70
     1
102
RTVSPropertyOp57
 70
     1
102
RTVSPost2010Prop28
280
     0
102
RTVSPost2010PropOp28
 70
     1
102
RTVSPost2010Prop29
280
     1
102
RTVSPost2010PropOp29
 70
     1
102
RTVSPost2010Prop30
280
     1
102
RTVSPost2010PropOp30
 70
     1
102
RTVSPost2010Prop31
280
     0
102
RTVSPost2010PropOp31
 70
     1
102
RTVSPost2010Prop32
280
     0
102
RTVSPost2010PropOp32
 70
     1
102
RTVSPost2010Prop33
280
     0
102
RTVSPost2010PropOp33
 70
     1
102
RTVSPost2010Prop34
280
     0
102
RTVSPost2010PropOp34
 70
     1
102
RTVSPost2010Prop35
280
     0
102
RTVSPost2010PropOp35
 70
     1
102
RTVSPost2010Prop36
280
     0
102
RTVSPost2010PropOp36
 70
     1
102
RTVSPost2010Prop37
 90
       50
102
RTVSPost2010PropOp37
 70
     1
102
RTVSPost2010Prop38
140
0.0
102
RTVSPost2010PropOp38
 70
     1
102
RTVSPost2010Prop39
140
1.0
102
RTVSPost2010PropOp39
 70
     1
102
RTVSPost2010Prop40
 90
        0
102
RTVSPost2010PropOp40
 70
     1
102
RTVSPost2010Prop41ColorIndex
 90
       18
102
RTVSPost2010Prop41ColorRGB
 90
        0
102
RTVSPost2010PropOp41
 70
     1
102
RTVSPost2010Prop42
 90
       50
102
RTVSPost2010PropOp42
 70
     1
102
RTVSPost2010Prop43
 90
        3
102
RTVSPost2010PropOp43
 70
     1
102
RTVSPost2010Prop44ColorIndex
 90
        5
102
RTVSPost2010Prop44ColorRGB
 90
      255
102
RTVSPost2010PropOp44
 70
     1
102
RTVSPost2010Prop45
280
     0
102
RTVSPost2010PropOp45
 70
     1
102
RTVSPost2010Prop46
 90
       50
102
RTVSPost2010PropOp46
 70
     1
102
RTVSPost2010Prop47
 90
       50
102
RTVSPost2010PropOp47
 70
     1
102
RTVSPost2010Prop48
 90
       50
102
RTVSPost2010PropOp48
 70
     1
102
RTVSPost2010Prop49
280
     0
102
RTVSPost2010PropOp49
 70
     1
102
RTVSPost2010Prop50
 90
       50
102
RTVSPost2010PropOp50
 70
     1
102
RTVSPost2010Prop51ColorIndex
 90
      256
102
RTVSPost2010Prop51ColorRGB
 90
-16777216
102
RTVSPost2010PropOp51
 70
     0
102
RTVSPost2010Prop52
140
1.0
102
RTVSPost2010PropOp52
 70
     0
102
RTVSPost2010Prop53
 90
        2
102
RTVSPost2010PropOp53
 70
     1
102
RTVSPost2010Prop54
  1
strokes_ogs.tif
102
RTVSPost2010PropOp54
 70
     1
102
RTVSPost2010Prop55
280
     0
102
RTVSPost2010PropOp55
 70
     1
102
RTVSPost2010Prop56
140
1.0
102
RTVSPost2010PropOp56
 70
     1
102
RTVSPost2010Prop57
140
1.0
102
RTVSPost2010PropOp57
 70
     1
  0
XRECORD
  5
B2
102
{ACAD_REACTORS
330
B1
102
}
330
B1
100
AcDbXrecord
280
     1
102
RTVSPropertyOp0
 70
     1
102
RTVSPropertyOp1
 70
     1
102
RTVSPropertyOp2
 70
     1
102
RTVSPropertyOp3
 70
     1
102
RTVSPropertyOp4
 70
     1
102
RTVSPropertyOp5
 70
     1
102
RTVSPropertyOp6
 70
     1
102
RTVSPropertyOp7
 70
     1
102
RTVSPropertyOp8
 70
     1
102
RTVSPropertyOp9
 70
     1
102
RTVSPropertyOp10
 70
     1
102
RTVSPropertyOp11
 70
     1
102
RTVSPropertyOp12
 70
     1
102
RTVSPropertyOp13
 70
     1
102
RTVSPropertyOp14
 70
     1
102
RTVSPropertyOp15
 70
     1
102
RTVSPropertyOp16
 70
     1
102
RTVSPropertyOp17
 70
     1
102
RTVSPropertyOp18
 70
     1
102
RTVSPropertyOp19
 70
     1
102
RTVSPropertyOp20
 70
     1
102
RTVSPropertyOp21
 70
     1
102
RTVSPropertyOp22
 70
     1
102
RTVSPropertyOp23
 70
     1
102
RTVSPropertyOp24
 70
     1
102
RTVSPropertyOp25
 70
     1
102
RTVSPropertyOp26
 70
     1
102
RTVSPropertyOp27
 70
     1
102
RTVSPropertyOp28
 70
     1
102
RTVSPropertyOp29
 70
     1
102
RTVSPropertyOp30
 70
     1
102
RTVSPropertyOp31
 70
     1
102
RTVSPropertyOp32
 70
     1
102
RTVSPropertyOp33
 70
     1
102
RTVSPropertyOp34
 70
     1
102
RTVSPropertyOp35
 70
     1
102
RTVSPropertyOp36
 70
     1
102
RTVSPropertyOp37
 70
     1
102
RTVSPropertyOp38
 70
     1
102
RTVSPropertyOp39
 70
     1
102
RTVSPropertyOp40
 70
     1
102
RTVSPropertyOp41
 70
     1
102
RTVSPropertyOp42
 70
     1
102
RTVSPropertyOp43
 70
     1
102
RTVSPropertyOp44
 70
     1
102
RTVSPropertyOp45
 70
     1
102
RTVSPropertyOp46
 70
     1
102
RTVSPropertyOp47
 70
     1
102
RTVSPropertyOp48
 70
     1
102
RTVSPropertyOp49
 70
     1
102
RTVSPropertyOp50
 70
     1
102
RTVSPropertyOp51
 70
     0
102
RTVSPropertyOp52
 70
     0
102
RTVSPropertyOp53
 70
     1
102
RTVSPropertyOp54
 70
     1
102
RTVSPropertyOp55
 70
     1
102
RTVSPropertyOp56
 70
     1
102
RTVSPropertyOp57
 70
     1
102
RTVSPost2010Prop28
280
     0
102
RTVSPost2010PropOp28
 70
     1
102
RTVSPost2010Prop29
280
     1
102
RTVSPost2010PropOp29
 70
     1
102
RTVSPost2010Prop30
280
     1
102
RTVSPost2010PropOp30
 70
     1
102
RTVSPost2010Prop31
280
     0
102
RTVSPost2010PropOp31
 70
     1
102
RTVSPost2010Prop32
280
     0
102
RTVSPost2010PropOp32
 70
     1
102
RTVSPost2010Prop33
280
     0
102
RTVSPost2010PropOp33
 70
     1
102
RTVSPost2010Prop34
280
     0
102
RTVSPost2010PropOp34
 70
     1
102
RTVSPost2010Prop35
280
     0
102
RTVSPost2010PropOp35
 70
     1
102
RTVSPost2010Prop36
280
     0
102
RTVSPost2010PropOp36
 70
     1
102
RTVSPost2010Prop37
 90
       50
102
RTVSPost2010PropOp37
 70
     1
102
RTVSPost2010Prop38
140
0.0
102
RTVSPost2010PropOp38
 70
     1
102
RTVSPost2010Prop39
140
1.0
102
RTVSPost2010PropOp39
 70
     1
102
RTVSPost2010Prop40
 90
        0
102
RTVSPost2010PropOp40
 70
     1
102
RTVSPost2010Prop41ColorIndex
 90
       18
102
RTVSPost2010Prop41ColorRGB
 90
        0
102
RTVSPost2010PropOp41
 70
     1
102
RTVSPost2010Prop42
 90
       50
102
RTVSPost2010PropOp42
 70
     1
102
RTVSPost2010Prop43
 90
        3
102
RTVSPost2010PropOp43
 70
     1
102
RTVSPost2010Prop44ColorIndex
 90
        5
102
RTVSPost2010Prop44ColorRGB
 90
      255
102
RTVSPost2010PropOp44
 70
     1
102
RTVSPost2010Prop45
280
     0
102
RTVSPost2010PropOp45
 70
     1
102
RTVSPost2010Prop46
 90
       50
102
RTVSPost2010PropOp46
 70
     1
102
RTVSPost2010Prop47
 90
       50
102
RTVSPost2010PropOp47
 70
     1
102
RTVSPost2010Prop48
 90
       50
102
RTVSPost2010PropOp48
 70
     1
102
RTVSPost2010Prop49
280
     0
102
RTVSPost2010PropOp49
 70
     1
102
RTVSPost2010Prop50
 90
       50
102
RTVSPost2010PropOp50
 70
     1
102
RTVSPost2010Prop51ColorIndex
 90
      256
102
RTVSPost2010Prop51ColorRGB
 90
-16777216
102
RTVSPost2010PropOp51
 70
     0
102
RTVSPost2010Prop52
140
1.0
102
RTVSPost2010PropOp52
 70
     0
102
RTVSPost2010Prop53
 90
        2
102
RTVSPost2010PropOp53
 70
     1
102
RTVSPost2010Prop54
  1
strokes_ogs.tif
102
RTVSPost2010PropOp54
 70
     1
102
RTVSPost2010Prop55
280
     0
102
RTVSPost2010PropOp55
 70
     1
102
RTVSPost2010Prop56
140
1.0
102
RTVSPost2010PropOp56
 70
     1
102
RTVSPost2010Prop57
140
1.0
102
RTVSPost2010PropOp57
 70
     1
  0
XRECORD
  5
B4
102
{ACAD_REACTORS
330
B3
102
}
330
B3
100
AcDbXrecord
280
     1
102
RTVSPropertyOp0
 70
     1
102
RTVSPropertyOp1
 70
     1
102
RTVSPropertyOp2
 70
     1
102
RTVSPropertyOp3
 70
     1
102
RTVSPropertyOp4
 70
     1
102
RTVSPropertyOp5
 70
     1
102
RTVSPropertyOp6
 70
     1
102
RTVSPropertyOp7
 70
     1
102
RTVSPropertyOp8
 70
     1
102
RTVSPropertyOp9
 70
     1
102
RTVSPropertyOp10
 70
     1
102
RTVSPropertyOp11
 70
     1
102
RTVSPropertyOp12
 70
     1
102
RTVSPropertyOp13
 70
     1
102
RTVSPropertyOp14
 70
     1
102
RTVSPropertyOp15
 70
     1
102
RTVSPropertyOp16
 70
     1
102
RTVSPropertyOp17
 70
     1
102
RTVSPropertyOp18
 70
     1
102
RTVSPropertyOp19
 70
     1
102
RTVSPropertyOp20
 70
     1
102
RTVSPropertyOp21
 70
     1
102
RTVSPropertyOp22
 70
     1
102
RTVSPropertyOp23
 70
     1
102
RTVSPropertyOp24
 70
     1
102
RTVSPropertyOp25
 70
     1
102
RTVSPropertyOp26
 70
     1
102
RTVSPropertyOp27
 70
     1
102
RTVSPropertyOp28
 70
     1
102
RTVSPropertyOp29
 70
     1
102
RTVSPropertyOp30
 70
     1
102
RTVSPropertyOp31
 70
     1
102
RTVSPropertyOp32
 70
     1
102
RTVSPropertyOp33
 70
     1
102
RTVSPropertyOp34
 70
     1
102
RTVSPropertyOp35
 70
     1
102
RTVSPropertyOp36
 70
     1
102
RTVSPropertyOp37
 70
     1
102
RTVSPropertyOp38
 70
     1
102
RTVSPropertyOp39
 70
     1
102
RTVSPropertyOp40
 70
     1
102
RTVSPropertyOp41
 70
     1
102
RTVSPropertyOp42
 70
     1
102
RTVSPropertyOp43
 70
     1
102
RTVSPropertyOp44
 70
     1
102
RTVSPropertyOp45
 70
     1
102
RTVSPropertyOp46
 70
     1
102
RTVSPropertyOp47
 70
     1
102
RTVSPropertyOp48
 70
     1
102
RTVSPropertyOp49
 70
     1
102
RTVSPropertyOp50
 70
     1
102
RTVSPropertyOp51
 70
     0
102
RTVSPropertyOp52
 70
     0
102
RTVSPropertyOp53
 70
     1
102
RTVSPropertyOp54
 70
     1
102
RTVSPropertyOp55
 70
     1
102
RTVSPropertyOp56
 70
     1
102
RTVSPropertyOp57
 70
     1
102
RTVSPost2010Prop28
280
     0
102
RTVSPost2010PropOp28
 70
     1
102
RTVSPost2010Prop29
280
     1
102
RTVSPost2010PropOp29
 70
     1
102
RTVSPost2010Prop30
280
     1
102
RTVSPost2010PropOp30
 70
     1
102
RTVSPost2010Prop31
280
     0
102
RTVSPost2010PropOp31
 70
     1
102
RTVSPost2010Prop32
280
     0
102
RTVSPost2010PropOp32
 70
     1
102
RTVSPost2010Prop33
280
     0
102
RTVSPost2010PropOp33
 70
     1
102
RTVSPost2010Prop34
280
     0
102
RTVSPost2010PropOp34
 70
     1
102
RTVSPost2010Prop35
280
     0
102
RTVSPost2010PropOp35
 70
     1
102
RTVSPost2010Prop36
280
     0
102
RTVSPost2010PropOp36
 70
     1
102
RTVSPost2010Prop37
 90
       50
102
RTVSPost2010PropOp37
 70
     1
102
RTVSPost2010Prop38
140
0.0
102
RTVSPost2010PropOp38
 70
     1
102
RTVSPost2010Prop39
140
1.0
102
RTVSPost2010PropOp39
 70
     1
102
RTVSPost2010Prop40
 90
        0
102
RTVSPost2010PropOp40
 70
     1
102
RTVSPost2010Prop41ColorIndex
 90
       18
102
RTVSPost2010Prop41ColorRGB
 90
        0
102
RTVSPost2010PropOp41
 70
     1
102
RTVSPost2010Prop42
 90
       50
102
RTVSPost2010PropOp42
 70
     1
102
RTVSPost2010Prop43
 90
        3
102
RTVSPost2010PropOp43
 70
     1
102
RTVSPost2010Prop44ColorIndex
 90
        5
102
RTVSPost2010Prop44ColorRGB
 90
      255
102
RTVSPost2010PropOp44
 70
     1
102
RTVSPost2010Prop45
280
     0
102
RTVSPost2010PropOp45
 70
     1
102
RTVSPost2010Prop46
 90
       50
102
RTVSPost2010PropOp46
 70
     1
102
RTVSPost2010Prop47
 90
       50
102
RTVSPost2010PropOp47
 70
     1
102
RTVSPost2010Prop48
 90
       50
102
RTVSPost2010PropOp48
 70
     1
102
RTVSPost2010Prop49
280
     0
102
RTVSPost2010PropOp49
 70
     1
102
RTVSPost2010Prop50
 90
       50
102
RTVSPost2010PropOp50
 70
     1
102
RTVSPost2010Prop51ColorIndex
 90
      256
102
RTVSPost2010Prop51ColorRGB
 90
-16777216
102
RTVSPost2010PropOp51
 70
     0
102
RTVSPost2010Prop52
140
1.0
102
RTVSPost2010PropOp52
 70
     0
102
RTVSPost2010Prop53
 90
        2
102
RTVSPost2010PropOp53
 70
     1
102
RTVSPost2010Prop54
  1
strokes_ogs.tif
102
RTVSPost2010PropOp54
 70
     1
102
RTVSPost2010Prop55
280
     0
102
RTVSPost2010PropOp55
 70
     1
102
RTVSPost2010Prop56
140
1.0
102
RTVSPost2010PropOp56
 70
     1
102
RTVSPost2010Prop57
140
1.0
102
RTVSPost2010PropOp57
 70
     1
  0
XRECORD
  5
BA
102
{ACAD_REACTORS
330
B9
102
}
330
B9
100
AcDbXrecord
280
     1
102
RTVSPropertyOp0
 70
     1
102
RTVSPropertyOp1
 70
     1
102
RTVSPropertyOp2
 70
     1
102
RTVSPropertyOp3
 70
     1
102
RTVSPropertyOp4
 70
     1
102
RTVSPropertyOp5
 70
     1
102
RTVSPropertyOp6
 70
     1
102
RTVSPropertyOp7
 70
     1
102
RTVSPropertyOp8
 70
     1
102
RTVSPropertyOp9
 70
     1
102
RTVSPropertyOp10
 70
     1
102
RTVSPropertyOp11
 70
     1
102
RTVSPropertyOp12
 70
     1
102
RTVSPropertyOp13
 70
     1
102
RTVSPropertyOp14
 70
     1
102
RTVSPropertyOp15
 70
     1
102
RTVSPropertyOp16
 70
     1
102
RTVSPropertyOp17
 70
     1
102
RTVSPropertyOp18
 70
     1
102
RTVSPropertyOp19
 70
     1
102
RTVSPropertyOp20
 70
     1
102
RTVSPropertyOp21
 70
     1
102
RTVSPropertyOp22
 70
     1
102
RTVSPropertyOp23
 70
     1
102
RTVSPropertyOp24
 70
     1
102
RTVSPropertyOp25
 70
     1
102
RTVSPropertyOp26
 70
     1
102
RTVSPropertyOp27
 70
     1
102
RTVSPropertyOp28
 70
     1
102
RTVSPropertyOp29
 70
     1
102
RTVSPropertyOp30
 70
     1
102
RTVSPropertyOp31
 70
     1
102
RTVSPropertyOp32
 70
     1
102
RTVSPropertyOp33
 70
     1
102
RTVSPropertyOp34
 70
     1
102
RTVSPropertyOp35
 70
     1
102
RTVSPropertyOp36
 70
     1
102
RTVSPropertyOp37
 70
     1
102
RTVSPropertyOp38
 70
     1
102
RTVSPropertyOp39
 70
     1
102
RTVSPropertyOp40
 70
     1
102
RTVSPropertyOp41
 70
     1
102
RTVSPropertyOp42
 70
     1
102
RTVSPropertyOp43
 70
     1
102
RTVSPropertyOp44
 70
     1
102
RTVSPropertyOp45
 70
     1
102
RTVSPropertyOp46
 70
     1
102
RTVSPropertyOp47
 70
     1
102
RTVSPropertyOp48
 70
     1
102
RTVSPropertyOp49
 70
     1
102
RTVSPropertyOp50
 70
     1
102
RTVSPropertyOp51
 70
     0
102
RTVSPropertyOp52
 70
     0
102
RTVSPropertyOp53
 70
     1
102
RTVSPropertyOp54
 70
     1
102
RTVSPropertyOp55
 70
     1
102
RTVSPropertyOp56
 70
     1
102
RTVSPropertyOp57
 70
     1
102
RTVSPost2010Prop28
280
     0
102
RTVSPost2010PropOp28
 70
     1
102
RTVSPost2010Prop29
280
     1
102
RTVSPost2010PropOp29
 70
     1
102
RTVSPost2010Prop30
280
     1
102
RTVSPost2010PropOp30
 70
     1
102
RTVSPost2010Prop31
280
     0
102
RTVSPost2010PropOp31
 70
     1
102
RTVSPost2010Prop32
280
     0
102
RTVSPost2010PropOp32
 70
     1
102
RTVSPost2010Prop33
280
     0
102
RTVSPost2010PropOp33
 70
     1
102
RTVSPost2010Prop34
280
     0
102
RTVSPost2010PropOp34
 70
     1
102
RTVSPost2010Prop35
280
     0
102
RTVSPost2010PropOp35
 70
     1
102
RTVSPost2010Prop36
280
     0
102
RTVSPost2010PropOp36
 70
     1
102
RTVSPost2010Prop37
 90
       50
102
RTVSPost2010PropOp37
 70
     1
102
RTVSPost2010Prop38
140
0.0
102
RTVSPost2010PropOp38
 70
     1
102
RTVSPost2010Prop39
140
1.0
102
RTVSPost2010PropOp39
 70
     1
102
RTVSPost2010Prop40
 90
        0
102
RTVSPost2010PropOp40
 70
     1
102
RTVSPost2010Prop41ColorIndex
 90
       18
102
RTVSPost2010Prop41ColorRGB
 90
        0
102
RTVSPost2010PropOp41
 70
     1
102
RTVSPost2010Prop42
 90
       50
102
RTVSPost2010PropOp42
 70
     1
102
RTVSPost2010Prop43
 90
        3
102
RTVSPost2010PropOp43
 70
     1
102
RTVSPost2010Prop44ColorIndex
 90
        5
102
RTVSPost2010Prop44ColorRGB
 90
      255
102
RTVSPost2010PropOp44
 70
     1
102
RTVSPost2010Prop45
280
     0
102
RTVSPost2010PropOp45
 70
     1
102
RTVSPost2010Prop46
 90
       50
102
RTVSPost2010PropOp46
 70
     1
102
RTVSPost2010Prop47
 90
       50
102
RTVSPost2010PropOp47
 70
     1
102
RTVSPost2010Prop48
 90
       50
102
RTVSPost2010PropOp48
 70
     1
102
RTVSPost2010Prop49
280
     0
102
RTVSPost2010PropOp49
 70
     1
102
RTVSPost2010Prop50
 90
       50
102
RTVSPost2010PropOp50
 70
     1
102
RTVSPost2010Prop51ColorIndex
 90
      256
102
RTVSPost2010Prop51ColorRGB
 90
-16777216
102
RTVSPost2010PropOp51
 70
     0
102
RTVSPost2010Prop52
140
1.0
102
RTVSPost2010PropOp52
 70
     0
102
RTVSPost2010Prop53
 90
        2
102
RTVSPost2010PropOp53
 70
     1
102
RTVSPost2010Prop54
  1
strokes_ogs.tif
102
RTVSPost2010PropOp54
 70
     1
102
RTVSPost2010Prop55
280
     0
102
RTVSPost2010PropOp55
 70
     1
102
RTVSPost2010Prop56
140
1.0
102
RTVSPost2010PropOp56
 70
     1
102
RTVSPost2010Prop57
140
1.0
102
RTVSPost2010PropOp57
 70
     1
  0
XRECORD
  5
CE
102
{ACAD_REACTORS
330
CD
102
}
330
CD
100
AcDbXrecord
280
     1
102
RTVSPropertyOp0
 70
     0
102
RTVSPropertyOp1
 70
     0
102
RTVSPropertyOp2
 70
     0
102
RTVSPropertyOp3
 70
     0
102
RTVSPropertyOp4
 70
     0
102
RTVSPropertyOp5
 70
     0
102
RTVSPropertyOp6
 70
     0
102
RTVSPropertyOp7
 70
     0
102
RTVSPropertyOp8
 70
     0
102
RTVSPropertyOp9
 70
     0
102
RTVSPropertyOp10
 70
     0
102
RTVSPropertyOp11
 70
     0
102
RTVSPropertyOp12
 70
     0
102
RTVSPropertyOp13
 70
     0
102
RTVSPropertyOp14
 70
     2
102
RTVSPropertyOp15
 70
     0
102
RTVSPropertyOp16
 70
     0
102
RTVSPropertyOp17
 70
     0
102
RTVSPropertyOp18
 70
     0
102
RTVSPropertyOp19
 70
     0
102
RTVSPropertyOp20
 70
     0
102
RTVSPropertyOp21
 70
     0
102
RTVSPropertyOp22
 70
     0
102
RTVSPropertyOp23
 70
     0
102
RTVSPropertyOp24
 70
     0
102
RTVSPropertyOp25
 70
     0
102
RTVSPropertyOp26
 70
     0
102
RTVSPropertyOp27
 70
     0
102
RTVSPropertyOp28
 70
     0
102
RTVSPropertyOp29
 70
     0
102
RTVSPropertyOp30
 70
     0
102
RTVSPropertyOp31
 70
     0
102
RTVSPropertyOp32
 70
     0
102
RTVSPropertyOp33
 70
     0
102
RTVSPropertyOp34
 70
     0
102
RTVSPropertyOp35
 70
     0
102
RTVSPropertyOp36
 70
     0
102
RTVSPropertyOp37
 70
     0
102
RTVSPropertyOp38
 70
     0
102
RTVSPropertyOp39
 70
     0
102
RTVSPropertyOp40
 70
     0
102
RTVSPropertyOp41
 70
     0
102
RTVSPropertyOp42
 70
     0
102
RTVSPropertyOp43
 70
     0
102
RTVSPropertyOp44
 70
     0
102
RTVSPropertyOp45
 70
     0
102
RTVSPropertyOp46
 70
     0
102
RTVSPropertyOp47
 70
     0
102
RTVSPropertyOp48
 70
     0
102
RTVSPropertyOp49
 70
     0
102
RTVSPropertyOp50
 70
     0
102
RTVSPropertyOp51
 70
     0
102
RTVSPropertyOp52
 70
     0
102
RTVSPropertyOp53
 70
     0
102
RTVSPropertyOp54
 70
     0
102
RTVSPropertyOp55
 70
     0
102
RTVSPropertyOp56
 70
     0
102
RTVSPropertyOp57
 70
     0
102
RTVSPost2010Prop28
280
     0
102
RTVSPost2010PropOp28
 70
     0
102
RTVSPost2010Prop29
280
     1
102
RTVSPost2010PropOp29
 70
     0
102
RTVSPost2010Prop30
280
     1
102
RTVSPost2010PropOp30
 70
     0
102
RTVSPost2010Prop31
280
     0
102
RTVSPost2010PropOp31
 70
     0
102
RTVSPost2010Prop32
280
     0
102
RTVSPost2010PropOp32
 70
     0
102
RTVSPost2010Prop33
280
     0
102
RTVSPost2010PropOp33
 70
     0
102
RTVSPost2010Prop34
280
     0
102
RTVSPost2010PropOp34
 70
     0
102
RTVSPost2010Prop35
280
     0
102
RTVSPost2010PropOp35
 70
     0
102
RTVSPost2010Prop36
280
     0
102
RTVSPost2010PropOp36
 70
     0
102
RTVSPost2010Prop37
 90
       50
102
RTVSPost2010PropOp37
 70
     0
102
RTVSPost2010Prop38
140
0.0
102
RTVSPost2010PropOp38
 70
     0
102
RTVSPost2010Prop39
140
1.0
102
RTVSPost2010PropOp39
 70
     0
102
RTVSPost2010Prop40
 90
        0
102
RTVSPost2010PropOp40
 70
     0
102
RTVSPost2010Prop41ColorIndex
 90
       18
102
RTVSPost2010Prop41ColorRGB
 90
        0
102
RTVSPost2010PropOp41
 70
     0
102
RTVSPost2010Prop42
 90
       50
102
RTVSPost2010PropOp42
 70
     0
102
RTVSPost2010Prop43
 90
        3
102
RTVSPost2010PropOp43
 70
     0
102
RTVSPost2010Prop44ColorIndex
 90
        5
102
RTVSPost2010Prop44ColorRGB
 90
      255
102
RTVSPost2010PropOp44
 70
     0
102
RTVSPost2010Prop45
280
     0
102
RTVSPost2010PropOp45
 70
     0
102
RTVSPost2010Prop46
 90
       50
102
RTVSPost2010PropOp46
 70
     0
102
RTVSPost2010Prop47
 90
       50
102
RTVSPost2010PropOp47
 70
     0
102
RTVSPost2010Prop48
 90
       50
102
RTVSPost2010PropOp48
 70
     0
102
RTVSPost2010Prop49
280
     0
102
RTVSPost2010PropOp49
 70
     0
102
RTVSPost2010Prop50
 90
       50
102
RTVSPost2010PropOp50
 70
     0
102
RTVSPost2010Prop51ColorIndex
 90
      256
102
RTVSPost2010Prop51ColorRGB
 90
-16777216
102
RTVSPost2010PropOp51
 70
     0
102
RTVSPost2010Prop52
140
1.0
102
RTVSPost2010PropOp52
 70
     0
102
RTVSPost2010Prop53
 90
        2
102
RTVSPost2010PropOp53
 70
     0
102
RTVSPost2010Prop54
  1
strokes_ogs.tif
102
RTVSPost2010PropOp54
 70
     0
102
RTVSPost2010Prop55
280
     0
102
RTVSPost2010PropOp55
 70
     0
102
RTVSPost2010Prop56
140
1.0
102
RTVSPost2010PropOp56
 70
     0
102
RTVSPost2010Prop57
140
1.0
102
RTVSPost2010PropOp57
 70
     0
  0
XRECORD
  5
C8
102
{ACAD_REACTORS
330
C7
102
}
330
C7
100
AcDbXrecord
280
     1
102
RTVSPropertyOp0
 70
     1
102
RTVSPropertyOp1
 70
     1
102
RTVSPropertyOp2
 70
     1
102
RTVSPropertyOp3
 70
     1
102
RTVSPropertyOp4
 70
     1
102
RTVSPropertyOp5
 70
     1
102
RTVSPropertyOp6
 70
     1
102
RTVSPropertyOp7
 70
     1
102
RTVSPropertyOp8
 70
     1
102
RTVSPropertyOp9
 70
     1
102
RTVSPropertyOp10
 70
     1
102
RTVSPropertyOp11
 70
     1
102
RTVSPropertyOp12
 70
     1
102
RTVSPropertyOp13
 70
     1
102
RTVSPropertyOp14
 70
     1
102
RTVSPropertyOp15
 70
     1
102
RTVSPropertyOp16
 70
     1
102
RTVSPropertyOp17
 70
     1
102
RTVSPropertyOp18
 70
     1
102
RTVSPropertyOp19
 70
     1
102
RTVSPropertyOp20
 70
     1
102
RTVSPropertyOp21
 70
     1
102
RTVSPropertyOp22
 70
     1
102
RTVSPropertyOp23
 70
     1
102
RTVSPropertyOp24
 70
     1
102
RTVSPropertyOp25
 70
     1
102
RTVSPropertyOp26
 70
     1
102
RTVSPropertyOp27
 70
     1
102
RTVSPropertyOp28
 70
     1
102
RTVSPropertyOp29
 70
     1
102
RTVSPropertyOp30
 70
     1
102
RTVSPropertyOp31
 70
     1
102
RTVSPropertyOp32
 70
     1
102
RTVSPropertyOp33
 70
     1
102
RTVSPropertyOp34
 70
     1
102
RTVSPropertyOp35
 70
     1
102
RTVSPropertyOp36
 70
     1
102
RTVSPropertyOp37
 70
     1
102
RTVSPropertyOp38
 70
     1
102
RTVSPropertyOp39
 70
     1
102
RTVSPropertyOp40
 70
     1
102
RTVSPropertyOp41
 70
     1
102
RTVSPropertyOp42
 70
     1
102
RTVSPropertyOp43
 70
     1
102
RTVSPropertyOp44
 70
     1
102
RTVSPropertyOp45
 70
     1
102
RTVSPropertyOp46
 70
     1
102
RTVSPropertyOp47
 70
     1
102
RTVSPropertyOp48
 70
     1
102
RTVSPropertyOp49
 70
     1
102
RTVSPropertyOp50
 70
     1
102
RTVSPropertyOp51
 70
     0
102
RTVSPropertyOp52
 70
     0
102
RTVSPropertyOp53
 70
     1
102
RTVSPropertyOp54
 70
     1
102
RTVSPropertyOp55
 70
     1
102
RTVSPropertyOp56
 70
     1
102
RTVSPropertyOp57
 70
     1
102
RTVSPost2010Prop28
280
     0
102
RTVSPost2010PropOp28
 70
     1
102
RTVSPost2010Prop29
280
     1
102
RTVSPost2010PropOp29
 70
     1
102
RTVSPost2010Prop30
280
     1
102
RTVSPost2010PropOp30
 70
     1
102
RTVSPost2010Prop31
280
     0
102
RTVSPost2010PropOp31
 70
     1
102
RTVSPost2010Prop32
280
     0
102
RTVSPost2010PropOp32
 70
     1
102
RTVSPost2010Prop33
280
     0
102
RTVSPost2010PropOp33
 70
     1
102
RTVSPost2010Prop34
280
     0
102
RTVSPost2010PropOp34
 70
     1
102
RTVSPost2010Prop35
280
     0
102
RTVSPost2010PropOp35
 70
     1
102
RTVSPost2010Prop36
280
     0
102
RTVSPost2010PropOp36
 70
     1
102
RTVSPost2010Prop37
 90
       50
102
RTVSPost2010PropOp37
 70
     1
102
RTVSPost2010Prop38
140
0.0
102
RTVSPost2010PropOp38
 70
     1
102
RTVSPost2010Prop39
140
1.0
102
RTVSPost2010PropOp39
 70
     1
102
RTVSPost2010Prop40
 90
        0
102
RTVSPost2010PropOp40
 70
     1
102
RTVSPost2010Prop41ColorIndex
 90
       18
102
RTVSPost2010Prop41ColorRGB
 90
        0
102
RTVSPost2010PropOp41
 70
     1
102
RTVSPost2010Prop42
 90
       50
102
RTVSPost2010PropOp42
 70
     1
102
RTVSPost2010Prop43
 90
        3
102
RTVSPost2010PropOp43
 70
     1
102
RTVSPost2010Prop44ColorIndex
 90
        5
102
RTVSPost2010Prop44ColorRGB
 90
      255
102
RTVSPost2010PropOp44
 70
     1
102
RTVSPost2010Prop45
280
     0
102
RTVSPost2010PropOp45
 70
     1
102
RTVSPost2010Prop46
 90
       50
102
RTVSPost2010PropOp46
 70
     1
102
RTVSPost2010Prop47
 90
       50
102
RTVSPost2010PropOp47
 70
     1
102
RTVSPost2010Prop48
 90
       50
102
RTVSPost2010PropOp48
 70
     1
102
RTVSPost2010Prop49
280
     0
102
RTVSPost2010PropOp49
 70
     1
102
RTVSPost2010Prop50
 90
       50
102
RTVSPost2010PropOp50
 70
     1
102
RTVSPost2010Prop51ColorIndex
 90
      256
102
RTVSPost2010Prop51ColorRGB
 90
-16777216
102
RTVSPost2010PropOp51
 70
     0
102
RTVSPost2010Prop52
140
1.0
102
RTVSPost2010PropOp52
 70
     0
102
RTVSPost2010Prop53
 90
        2
102
RTVSPost2010PropOp53
 70
     1
102
RTVSPost2010Prop54
  1
strokes_ogs.tif
102
RTVSPost2010PropOp54
 70
     1
102
RTVSPost2010Prop55
280
     0
102
RTVSPost2010PropOp55
 70
     1
102
RTVSPost2010Prop56
140
1.0
102
RTVSPost2010PropOp56
 70
     1
102
RTVSPost2010Prop57
140
1.0
102
RTVSPost2010PropOp57
 70
     1
  0
XRECORD
  5
D0
102
{ACAD_REACTORS
330
CF
102
}
330
CF
100
AcDbXrecord
280
     1
102
RTVSPropertyOp0
 70
     0
102
RTVSPropertyOp1
 70
     0
102
RTVSPropertyOp2
 70
     0
102
RTVSPropertyOp3
 70
     0
102
RTVSPropertyOp4
 70
     0
102
RTVSPropertyOp5
 70
     0
102
RTVSPropertyOp6
 70
     0
102
RTVSPropertyOp7
 70
     0
102
RTVSPropertyOp8
 70
     0
102
RTVSPropertyOp9
 70
     0
102
RTVSPropertyOp10
 70
     0
102
RTVSPropertyOp11
 70
     0
102
RTVSPropertyOp12
 70
     0
102
RTVSPropertyOp13
 70
     0
102
RTVSPropertyOp14
 70
     2
102
RTVSPropertyOp15
 70
     0
102
RTVSPropertyOp16
 70
     0
102
RTVSPropertyOp17
 70
     0
102
RTVSPropertyOp18
 70
     0
102
RTVSPropertyOp19
 70
     0
102
RTVSPropertyOp20
 70
     0
102
RTVSPropertyOp21
 70
     0
102
RTVSPropertyOp22
 70
     0
102
RTVSPropertyOp23
 70
     0
102
RTVSPropertyOp24
 70
     0
102
RTVSPropertyOp25
 70
     0
102
RTVSPropertyOp26
 70
     0
102
RTVSPropertyOp27
 70
     0
102
RTVSPropertyOp28
 70
     0
102
RTVSPropertyOp29
 70
     0
102
RTVSPropertyOp30
 70
     0
102
RTVSPropertyOp31
 70
     0
102
RTVSPropertyOp32
 70
     0
102
RTVSPropertyOp33
 70
     0
102
RTVSPropertyOp34
 70
     0
102
RTVSPropertyOp35
 70
     0
102
RTVSPropertyOp36
 70
     0
102
RTVSPropertyOp37
 70
     0
102
RTVSPropertyOp38
 70
     0
102
RTVSPropertyOp39
 70
     0
102
RTVSPropertyOp40
 70
     0
102
RTVSPropertyOp41
 70
     0
102
RTVSPropertyOp42
 70
     0
102
RTVSPropertyOp43
 70
     0
102
RTVSPropertyOp44
 70
     0
102
RTVSPropertyOp45
 70
     0
102
RTVSPropertyOp46
 70
     0
102
RTVSPropertyOp47
 70
     0
102
RTVSPropertyOp48
 70
     0
102
RTVSPropertyOp49
 70
     0
102
RTVSPropertyOp50
 70
     0
102
RTVSPropertyOp51
 70
     0
102
RTVSPropertyOp52
 70
     0
102
RTVSPropertyOp53
 70
     0
102
RTVSPropertyOp54
 70
     0
102
RTVSPropertyOp55
 70
     0
102
RTVSPropertyOp56
 70
     0
102
RTVSPropertyOp57
 70
     0
102
RTVSPost2010Prop28
280
     0
102
RTVSPost2010PropOp28
 70
     0
102
RTVSPost2010Prop29
280
     1
102
RTVSPost2010PropOp29
 70
     0
102
RTVSPost2010Prop30
280
     1
102
RTVSPost2010PropOp30
 70
     0
102
RTVSPost2010Prop31
280
     0
102
RTVSPost2010PropOp31
 70
     0
102
RTVSPost2010Prop32
280
     0
102
RTVSPost2010PropOp32
 70
     0
102
RTVSPost2010Prop33
280
     0
102
RTVSPost2010PropOp33
 70
     0
102
RTVSPost2010Prop34
280
     0
102
RTVSPost2010PropOp34
 70
     0
102
RTVSPost2010Prop35
280
     0
102
RTVSPost2010PropOp35
 70
     0
102
RTVSPost2010Prop36
280
     0
102
RTVSPost2010PropOp36
 70
     0
102
RTVSPost2010Prop37
 90
       50
102
RTVSPost2010PropOp37
 70
     0
102
RTVSPost2010Prop38
140
0.0
102
RTVSPost2010PropOp38
 70
     0
102
RTVSPost2010Prop39
140
1.0
102
RTVSPost2010PropOp39
 70
     0
102
RTVSPost2010Prop40
 90
        0
102
RTVSPost2010PropOp40
 70
     0
102
RTVSPost2010Prop41ColorIndex
 90
       18
102
RTVSPost2010Prop41ColorRGB
 90
        0
102
RTVSPost2010PropOp41
 70
     0
102
RTVSPost2010Prop42
 90
       50
102
RTVSPost2010PropOp42
 70
     0
102
RTVSPost2010Prop43
 90
        3
102
RTVSPost2010PropOp43
 70
     0
102
RTVSPost2010Prop44ColorIndex
 90
        5
102
RTVSPost2010Prop44ColorRGB
 90
      255
102
RTVSPost2010PropOp44
 70
     0
102
RTVSPost2010Prop45
280
     0
102
RTVSPost2010PropOp45
 70
     0
102
RTVSPost2010Prop46
 90
       50
102
RTVSPost2010PropOp46
 70
     0
102
RTVSPost2010Prop47
 90
       50
102
RTVSPost2010PropOp47
 70
     0
102
RTVSPost2010Prop48
 90
       50
102
RTVSPost2010PropOp48
 70
     0
102
RTVSPost2010Prop49
280
     0
102
RTVSPost2010PropOp49
 70
     0
102
RTVSPost2010Prop50
 90
       50
102
RTVSPost2010PropOp50
 70
     0
102
RTVSPost2010Prop51ColorIndex
 90
      256
102
RTVSPost2010Prop51ColorRGB
 90
-16777216
102
RTVSPost2010PropOp51
 70
     0
102
RTVSPost2010Prop52
140
1.0
102
RTVSPost2010PropOp52
 70
     0
102
RTVSPost2010Prop53
 90
        2
102
RTVSPost2010PropOp53
 70
     0
102
RTVSPost2010Prop54
  1
strokes_ogs.tif
102
RTVSPost2010PropOp54
 70
     0
102
RTVSPost2010Prop55
280
     0
102
RTVSPost2010PropOp55
 70
     0
102
RTVSPost2010Prop56
140
1.0
102
RTVSPost2010PropOp56
 70
     0
102
RTVSPost2010Prop57
140
1.0
102
RTVSPost2010PropOp57
 70
     0
  0
XRECORD
  5
BE
102
{ACAD_REACTORS
330
BD
102
}
330
BD
100
AcDbXrecord
280
     1
102
RTVSPropertyOp0
 70
     1
102
RTVSPropertyOp1
 70
     1
102
RTVSPropertyOp2
 70
     1
102
RTVSPropertyOp3
 70
     1
102
RTVSPropertyOp4
 70
     1
102
RTVSPropertyOp5
 70
     1
102
RTVSPropertyOp6
 70
     1
102
RTVSPropertyOp7
 70
     1
102
RTVSPropertyOp8
 70
     1
102
RTVSPropertyOp9
 70
     1
102
RTVSPropertyOp10
 70
     1
102
RTVSPropertyOp11
 70
     1
102
RTVSPropertyOp12
 70
     1
102
RTVSPropertyOp13
 70
     1
102
RTVSPropertyOp14
 70
     1
102
RTVSPropertyOp15
 70
     1
102
RTVSPropertyOp16
 70
     1
102
RTVSPropertyOp17
 70
     1
102
RTVSPropertyOp18
 70
     1
102
RTVSPropertyOp19
 70
     1
102
RTVSPropertyOp20
 70
     1
102
RTVSPropertyOp21
 70
     1
102
RTVSPropertyOp22
 70
     1
102
RTVSPropertyOp23
 70
     1
102
RTVSPropertyOp24
 70
     1
102
RTVSPropertyOp25
 70
     1
102
RTVSPropertyOp26
 70
     1
102
RTVSPropertyOp27
 70
     1
102
RTVSPropertyOp28
 70
     1
102
RTVSPropertyOp29
 70
     1
102
RTVSPropertyOp30
 70
     1
102
RTVSPropertyOp31
 70
     1
102
RTVSPropertyOp32
 70
     1
102
RTVSPropertyOp33
 70
     1
102
RTVSPropertyOp34
 70
     1
102
RTVSPropertyOp35
 70
     1
102
RTVSPropertyOp36
 70
     1
102
RTVSPropertyOp37
 70
     1
102
RTVSPropertyOp38
 70
     1
102
RTVSPropertyOp39
 70
     1
102
RTVSPropertyOp40
 70
     1
102
RTVSPropertyOp41
 70
     1
102
RTVSPropertyOp42
 70
     1
102
RTVSPropertyOp43
 70
     1
102
RTVSPropertyOp44
 70
     1
102
RTVSPropertyOp45
 70
     1
102
RTVSPropertyOp46
 70
     1
102
RTVSPropertyOp47
 70
     1
102
RTVSPropertyOp48
 70
     1
102
RTVSPropertyOp49
 70
     1
102
RTVSPropertyOp50
 70
     1
102
RTVSPropertyOp51
 70
     0
102
RTVSPropertyOp52
 70
     0
102
RTVSPropertyOp53
 70
     1
102
RTVSPropertyOp54
 70
     1
102
RTVSPropertyOp55
 70
     1
102
RTVSPropertyOp56
 70
     1
102
RTVSPropertyOp57
 70
     1
102
RTVSPost2010Prop28
280
     0
102
RTVSPost2010PropOp28
 70
     1
102
RTVSPost2010Prop29
280
     1
102
RTVSPost2010PropOp29
 70
     1
102
RTVSPost2010Prop30
280
     1
102
RTVSPost2010PropOp30
 70
     1
102
RTVSPost2010Prop31
280
     0
102
RTVSPost2010PropOp31
 70
     1
102
RTVSPost2010Prop32
280
     0
102
RTVSPost2010PropOp32
 70
     1
102
RTVSPost2010Prop33
280
     0
102
RTVSPost2010PropOp33
 70
     1
102
RTVSPost2010Prop34
280
     0
102
RTVSPost2010PropOp34
 70
     1
102
RTVSPost2010Prop35
280
     0
102
RTVSPost2010PropOp35
 70
     1
102
RTVSPost2010Prop36
280
     0
102
RTVSPost2010PropOp36
 70
     1
102
RTVSPost2010Prop37
 90
       50
102
RTVSPost2010PropOp37
 70
     1
102
RTVSPost2010Prop38
140
0.0
102
RTVSPost2010PropOp38
 70
     1
102
RTVSPost2010Prop39
140
1.0
102
RTVSPost2010PropOp39
 70
     1
102
RTVSPost2010Prop40
 90
        0
102
RTVSPost2010PropOp40
 70
     1
102
RTVSPost2010Prop41ColorIndex
 90
       18
102
RTVSPost2010Prop41ColorRGB
 90
        0
102
RTVSPost2010PropOp41
 70
     1
102
RTVSPost2010Prop42
 90
       50
102
RTVSPost2010PropOp42
 70
     1
102
RTVSPost2010Prop43
 90
        3
102
RTVSPost2010PropOp43
 70
     1
102
RTVSPost2010Prop44ColorIndex
 90
        5
102
RTVSPost2010Prop44ColorRGB
 90
      255
102
RTVSPost2010PropOp44
 70
     1
102
RTVSPost2010Prop45
280
     0
102
RTVSPost2010PropOp45
 70
     1
102
RTVSPost2010Prop46
 90
       50
102
RTVSPost2010PropOp46
 70
     1
102
RTVSPost2010Prop47
 90
       50
102
RTVSPost2010PropOp47
 70
     1
102
RTVSPost2010Prop48
 90
       50
102
RTVSPost2010PropOp48
 70
     1
102
RTVSPost2010Prop49
280
     0
102
RTVSPost2010PropOp49
 70
     1
102
RTVSPost2010Prop50
 90
       50
102
RTVSPost2010PropOp50
 70
     1
102
RTVSPost2010Prop51ColorIndex
 90
      256
102
RTVSPost2010Prop51ColorRGB
 90
-16777216
102
RTVSPost2010PropOp51
 70
     0
102
RTVSPost2010Prop52
140
1.0
102
RTVSPost2010PropOp52
 70
     0
102
RTVSPost2010Prop53
 90
        2
102
RTVSPost2010PropOp53
 70
     1
102
RTVSPost2010Prop54
  1
strokes_ogs.tif
102
RTVSPost2010PropOp54
 70
     1
102
RTVSPost2010Prop55
280
     0
102
RTVSPost2010PropOp55
 70
     1
102
RTVSPost2010Prop56
140
1.0
102
RTVSPost2010PropOp56
 70
     1
102
RTVSPost2010Prop57
140
1.0
102
RTVSPost2010PropOp57
 70
     1
  0
XRECORD
  5
DC
102
{ACAD_REACTORS
330
DB
102
}
330
DB
100
AcDbXrecord
280
     1
102
RTVSPropertyOp0
 70
     1
102
RTVSPropertyOp1
 70
     1
102
RTVSPropertyOp2
 70
     1
102
RTVSPropertyOp3
 70
     1
102
RTVSPropertyOp4
 70
     1
102
RTVSPropertyOp5
 70
     1
102
RTVSPropertyOp6
 70
     1
102
RTVSPropertyOp7
 70
     1
102
RTVSPropertyOp8
 70
     1
102
RTVSPropertyOp9
 70
     1
102
RTVSPropertyOp10
 70
     1
102
RTVSPropertyOp11
 70
     1
102
RTVSPropertyOp12
 70
     1
102
RTVSPropertyOp13
 70
     1
102
RTVSPropertyOp14
 70
     1
102
RTVSPropertyOp15
 70
     1
102
RTVSPropertyOp16
 70
     1
102
RTVSPropertyOp17
 70
     1
102
RTVSPropertyOp18
 70
     1
102
RTVSPropertyOp19
 70
     1
102
RTVSPropertyOp20
 70
     1
102
RTVSPropertyOp21
 70
     1
102
RTVSPropertyOp22
 70
     1
102
RTVSPropertyOp23
 70
     1
102
RTVSPropertyOp24
 70
     1
102
RTVSPropertyOp25
 70
     1
102
RTVSPropertyOp26
 70
     1
102
RTVSPropertyOp27
 70
     1
102
RTVSPropertyOp28
 70
     1
102
RTVSPropertyOp29
 70
     1
102
RTVSPropertyOp30
 70
     1
102
RTVSPropertyOp31
 70
     1
102
RTVSPropertyOp32
 70
     1
102
RTVSPropertyOp33
 70
     1
102
RTVSPropertyOp34
 70
     1
102
RTVSPropertyOp35
 70
     1
102
RTVSPropertyOp36
 70
     1
102
RTVSPropertyOp37
 70
     1
102
RTVSPropertyOp38
 70
     1
102
RTVSPropertyOp39
 70
     1
102
RTVSPropertyOp40
 70
     1
102
RTVSPropertyOp41
 70
     1
102
RTVSPropertyOp42
 70
     1
102
RTVSPropertyOp43
 70
     1
102
RTVSPropertyOp44
 70
     1
102
RTVSPropertyOp45
 70
     1
102
RTVSPropertyOp46
 70
     1
102
RTVSPropertyOp47
 70
     1
102
RTVSPropertyOp48
 70
     1
102
RTVSPropertyOp49
 70
     1
102
RTVSPropertyOp50
 70
     1
102
RTVSPropertyOp51
 70
     0
102
RTVSPropertyOp52
 70
     0
102
RTVSPropertyOp53
 70
     1
102
RTVSPropertyOp54
 70
     1
102
RTVSPropertyOp55
 70
     1
102
RTVSPropertyOp56
 70
     1
102
RTVSPropertyOp57
 70
     1
102
RTVSPost2010Prop28
280
     0
102
RTVSPost2010PropOp28
 70
     1
102
RTVSPost2010Prop29
280
     1
102
RTVSPost2010PropOp29
 70
     1
102
RTVSPost2010Prop30
280
     1
102
RTVSPost2010PropOp30
 70
     1
102
RTVSPost2010Prop31
280
     0
102
RTVSPost2010PropOp31
 70
     1
102
RTVSPost2010Prop32
280
     0
102
RTVSPost2010PropOp32
 70
     1
102
RTVSPost2010Prop33
280
     0
102
RTVSPost2010PropOp33
 70
     1
102
RTVSPost2010Prop34
280
     0
102
RTVSPost2010PropOp34
 70
     1
102
RTVSPost2010Prop35
280
     0
102
RTVSPost2010PropOp35
 70
     1
102
RTVSPost2010Prop36
280
     0
102
RTVSPost2010PropOp36
 70
     1
102
RTVSPost2010Prop37
 90
       50
102
RTVSPost2010PropOp37
 70
     1
102
RTVSPost2010Prop38
140
0.0
102
RTVSPost2010PropOp38
 70
     1
102
RTVSPost2010Prop39
140
1.0
102
RTVSPost2010PropOp39
 70
     1
102
RTVSPost2010Prop40
 90
        0
102
RTVSPost2010PropOp40
 70
     1
102
RTVSPost2010Prop41ColorIndex
 90
       18
102
RTVSPost2010Prop41ColorRGB
 90
        0
102
RTVSPost2010PropOp41
 70
     1
102
RTVSPost2010Prop42
 90
       50
102
RTVSPost2010PropOp42
 70
     1
102
RTVSPost2010Prop43
 90
        3
102
RTVSPost2010PropOp43
 70
     1
102
RTVSPost2010Prop44ColorIndex
 90
        5
102
RTVSPost2010Prop44ColorRGB
 90
      255
102
RTVSPost2010PropOp44
 70
     1
102
RTVSPost2010Prop45
280
     0
102
RTVSPost2010PropOp45
 70
     1
102
RTVSPost2010Prop46
 90
       50
102
RTVSPost2010PropOp46
 70
     1
102
RTVSPost2010Prop47
 90
       50
102
RTVSPost2010PropOp47
 70
     1
102
RTVSPost2010Prop48
 90
       50
102
RTVSPost2010PropOp48
 70
     1
102
RTVSPost2010Prop49
280
     0
102
RTVSPost2010PropOp49
 70
     1
102
RTVSPost2010Prop50
 90
       50
102
RTVSPost2010PropOp50
 70
     1
102
RTVSPost2010Prop51ColorIndex
 90
      256
102
RTVSPost2010Prop51ColorRGB
 90
-16777216
102
RTVSPost2010PropOp51
 70
     0
102
RTVSPost2010Prop52
140
1.0
102
RTVSPost2010PropOp52
 70
     0
102
RTVSPost2010Prop53
 90
        2
102
RTVSPost2010PropOp53
 70
     1
102
RTVSPost2010Prop54
  1
strokes_ogs.tif
102
RTVSPost2010PropOp54
 70
     1
102
RTVSPost2010Prop55
280
     0
102
RTVSPost2010PropOp55
 70
     1
102
RTVSPost2010Prop56
140
1.0
102
RTVSPost2010PropOp56
 70
     1
102
RTVSPost2010Prop57
140
1.0
102
RTVSPost2010PropOp57
 70
     1
  0
XRECORD
  5
DA
102
{ACAD_REACTORS
330
D9
102
}
330
D9
100
AcDbXrecord
280
     1
102
RTVSPropertyOp0
 70
     1
102
RTVSPropertyOp1
 70
     1
102
RTVSPropertyOp2
 70
     1
102
RTVSPropertyOp3
 70
     1
102
RTVSPropertyOp4
 70
     1
102
RTVSPropertyOp5
 70
     1
102
RTVSPropertyOp6
 70
     1
102
RTVSPropertyOp7
 70
     1
102
RTVSPropertyOp8
 70
     1
102
RTVSPropertyOp9
 70
     1
102
RTVSPropertyOp10
 70
     1
102
RTVSPropertyOp11
 70
     1
102
RTVSPropertyOp12
 70
     1
102
RTVSPropertyOp13
 70
     1
102
RTVSPropertyOp14
 70
     1
102
RTVSPropertyOp15
 70
     1
102
RTVSPropertyOp16
 70
     1
102
RTVSPropertyOp17
 70
     1
102
RTVSPropertyOp18
 70
     1
102
RTVSPropertyOp19
 70
     1
102
RTVSPropertyOp20
 70
     1
102
RTVSPropertyOp21
 70
     1
102
RTVSPropertyOp22
 70
     1
102
RTVSPropertyOp23
 70
     1
102
RTVSPropertyOp24
 70
     1
102
RTVSPropertyOp25
 70
     1
102
RTVSPropertyOp26
 70
     1
102
RTVSPropertyOp27
 70
     1
102
RTVSPropertyOp28
 70
     1
102
RTVSPropertyOp29
 70
     1
102
RTVSPropertyOp30
 70
     1
102
RTVSPropertyOp31
 70
     1
102
RTVSPropertyOp32
 70
     1
102
RTVSPropertyOp33
 70
     1
102
RTVSPropertyOp34
 70
     1
102
RTVSPropertyOp35
 70
     1
102
RTVSPropertyOp36
 70
     1
102
RTVSPropertyOp37
 70
     1
102
RTVSPropertyOp38
 70
     1
102
RTVSPropertyOp39
 70
     1
102
RTVSPropertyOp40
 70
     1
102
RTVSPropertyOp41
 70
     1
102
RTVSPropertyOp42
 70
     1
102
RTVSPropertyOp43
 70
     1
102
RTVSPropertyOp44
 70
     1
102
RTVSPropertyOp45
 70
     1
102
RTVSPropertyOp46
 70
     1
102
RTVSPropertyOp47
 70
     1
102
RTVSPropertyOp48
 70
     1
102
RTVSPropertyOp49
 70
     1
102
RTVSPropertyOp50
 70
     1
102
RTVSPropertyOp51
 70
     0
102
RTVSPropertyOp52
 70
     0
102
RTVSPropertyOp53
 70
     1
102
RTVSPropertyOp54
 70
     1
102
RTVSPropertyOp55
 70
     1
102
RTVSPropertyOp56
 70
     1
102
RTVSPropertyOp57
 70
     1
102
RTVSPost2010Prop28
280
     0
102
RTVSPost2010PropOp28
 70
     1
102
RTVSPost2010Prop29
280
     1
102
RTVSPost2010PropOp29
 70
     1
102
RTVSPost2010Prop30
280
     1
102
RTVSPost2010PropOp30
 70
     1
102
RTVSPost2010Prop31
280
     0
102
RTVSPost2010PropOp31
 70
     1
102
RTVSPost2010Prop32
280
     0
102
RTVSPost2010PropOp32
 70
     1
102
RTVSPost2010Prop33
280
     0
102
RTVSPost2010PropOp33
 70
     1
102
RTVSPost2010Prop34
280
     0
102
RTVSPost2010PropOp34
 70
     1
102
RTVSPost2010Prop35
280
     0
102
RTVSPost2010PropOp35
 70
     1
102
RTVSPost2010Prop36
280
     0
102
RTVSPost2010PropOp36
 70
     1
102
RTVSPost2010Prop37
 90
       50
102
RTVSPost2010PropOp37
 70
     1
102
RTVSPost2010Prop38
140
0.0
102
RTVSPost2010PropOp38
 70
     1
102
RTVSPost2010Prop39
140
1.0
102
RTVSPost2010PropOp39
 70
     1
102
RTVSPost2010Prop40
 90
        0
102
RTVSPost2010PropOp40
 70
     1
102
RTVSPost2010Prop41ColorIndex
 90
       18
102
RTVSPost2010Prop41ColorRGB
 90
        0
102
RTVSPost2010PropOp41
 70
     1
102
RTVSPost2010Prop42
 90
       50
102
RTVSPost2010PropOp42
 70
     1
102
RTVSPost2010Prop43
 90
        3
102
RTVSPost2010PropOp43
 70
     1
102
RTVSPost2010Prop44ColorIndex
 90
        5
102
RTVSPost2010Prop44ColorRGB
 90
      255
102
RTVSPost2010PropOp44
 70
     1
102
RTVSPost2010Prop45
280
     0
102
RTVSPost2010PropOp45
 70
     1
102
RTVSPost2010Prop46
 90
       50
102
RTVSPost2010PropOp46
 70
     1
102
RTVSPost2010Prop47
 90
       50
102
RTVSPost2010PropOp47
 70
     1
102
RTVSPost2010Prop48
 90
       50
102
RTVSPost2010PropOp48
 70
     1
102
RTVSPost2010Prop49
280
     0
102
RTVSPost2010PropOp49
 70
     1
102
RTVSPost2010Prop50
 90
       50
102
RTVSPost2010PropOp50
 70
     1
102
RTVSPost2010Prop51ColorIndex
 90
      256
102
RTVSPost2010Prop51ColorRGB
 90
-16777216
102
RTVSPost2010PropOp51
 70
     0
102
RTVSPost2010Prop52
140
1.0
102
RTVSPost2010PropOp52
 70
     0
102
RTVSPost2010Prop53
 90
        2
102
RTVSPost2010PropOp53
 70
     1
102
RTVSPost2010Prop54
  1
strokes_ogs.tif
102
RTVSPost2010PropOp54
 70
     1
102
RTVSPost2010Prop55
280
     0
102
RTVSPost2010PropOp55
 70
     1
102
RTVSPost2010Prop56
140
1.0
102
RTVSPost2010PropOp56
 70
     1
102
RTVSPost2010Prop57
140
1.0
102
RTVSPost2010PropOp57
 70
     1
  0
XRECORD
  5
D4
102
{ACAD_REACTORS
330
D3
102
}
330
D3
100
AcDbXrecord
280
     1
102
RTVSPropertyOp0
 70
     1
102
RTVSPropertyOp1
 70
     1
102
RTVSPropertyOp2
 70
     1
102
RTVSPropertyOp3
 70
     1
102
RTVSPropertyOp4
 70
     1
102
RTVSPropertyOp5
 70
     1
102
RTVSPropertyOp6
 70
     1
102
RTVSPropertyOp7
 70
     1
102
RTVSPropertyOp8
 70
     1
102
RTVSPropertyOp9
 70
     1
102
RTVSPropertyOp10
 70
     1
102
RTVSPropertyOp11
 70
     1
102
RTVSPropertyOp12
 70
     1
102
RTVSPropertyOp13
 70
     1
102
RTVSPropertyOp14
 70
     1
102
RTVSPropertyOp15
 70
     1
102
RTVSPropertyOp16
 70
     1
102
RTVSPropertyOp17
 70
     1
102
RTVSPropertyOp18
 70
     1
102
RTVSPropertyOp19
 70
     1
102
RTVSPropertyOp20
 70
     1
102
RTVSPropertyOp21
 70
     1
102
RTVSPropertyOp22
 70
     1
102
RTVSPropertyOp23
 70
     1
102
RTVSPropertyOp24
 70
     1
102
RTVSPropertyOp25
 70
     1
102
RTVSPropertyOp26
 70
     1
102
RTVSPropertyOp27
 70
     1
102
RTVSPropertyOp28
 70
     1
102
RTVSPropertyOp29
 70
     1
102
RTVSPropertyOp30
 70
     1
102
RTVSPropertyOp31
 70
     1
102
RTVSPropertyOp32
 70
     1
102
RTVSPropertyOp33
 70
     1
102
RTVSPropertyOp34
 70
     1
102
RTVSPropertyOp35
 70
     1
102
RTVSPropertyOp36
 70
     1
102
RTVSPropertyOp37
 70
     1
102
RTVSPropertyOp38
 70
     1
102
RTVSPropertyOp39
 70
     1
102
RTVSPropertyOp40
 70
     1
102
RTVSPropertyOp41
 70
     1
102
RTVSPropertyOp42
 70
     1
102
RTVSPropertyOp43
 70
     1
102
RTVSPropertyOp44
 70
     1
102
RTVSPropertyOp45
 70
     1
102
RTVSPropertyOp46
 70
     1
102
RTVSPropertyOp47
 70
     1
102
RTVSPropertyOp48
 70
     1
102
RTVSPropertyOp49
 70
     1
102
RTVSPropertyOp50
 70
     1
102
RTVSPropertyOp51
 70
     0
102
RTVSPropertyOp52
 70
     0
102
RTVSPropertyOp53
 70
     1
102
RTVSPropertyOp54
 70
     1
102
RTVSPropertyOp55
 70
     1
102
RTVSPropertyOp56
 70
     1
102
RTVSPropertyOp57
 70
     1
102
RTVSPost2010Prop28
280
     0
102
RTVSPost2010PropOp28
 70
     1
102
RTVSPost2010Prop29
280
     1
102
RTVSPost2010PropOp29
 70
     1
102
RTVSPost2010Prop30
280
     1
102
RTVSPost2010PropOp30
 70
     1
102
RTVSPost2010Prop31
280
     0
102
RTVSPost2010PropOp31
 70
     1
102
RTVSPost2010Prop32
280
     0
102
RTVSPost2010PropOp32
 70
     1
102
RTVSPost2010Prop33
280
     0
102
RTVSPost2010PropOp33
 70
     1
102
RTVSPost2010Prop34
280
     0
102
RTVSPost2010PropOp34
 70
     1
102
RTVSPost2010Prop35
280
     0
102
RTVSPost2010PropOp35
 70
     1
102
RTVSPost2010Prop36
280
     0
102
RTVSPost2010PropOp36
 70
     1
102
RTVSPost2010Prop37
 90
       50
102
RTVSPost2010PropOp37
 70
     1
102
RTVSPost2010Prop38
140
0.0
102
RTVSPost2010PropOp38
 70
     1
102
RTVSPost2010Prop39
140
1.0
102
RTVSPost2010PropOp39
 70
     1
102
RTVSPost2010Prop40
 90
        0
102
RTVSPost2010PropOp40
 70
     1
102
RTVSPost2010Prop41ColorIndex
 90
       18
102
RTVSPost2010Prop41ColorRGB
 90
        0
102
RTVSPost2010PropOp41
 70
     1
102
RTVSPost2010Prop42
 90
       50
102
RTVSPost2010PropOp42
 70
     1
102
RTVSPost2010Prop43
 90
        3
102
RTVSPost2010PropOp43
 70
     1
102
RTVSPost2010Prop44ColorIndex
 90
        5
102
RTVSPost2010Prop44ColorRGB
 90
      255
102
RTVSPost2010PropOp44
 70
     1
102
RTVSPost2010Prop45
280
     0
102
RTVSPost2010PropOp45
 70
     1
102
RTVSPost2010Prop46
 90
       50
102
RTVSPost2010PropOp46
 70
     1
102
RTVSPost2010Prop47
 90
       50
102
RTVSPost2010PropOp47
 70
     1
102
RTVSPost2010Prop48
 90
       50
102
RTVSPost2010PropOp48
 70
     1
102
RTVSPost2010Prop49
280
     0
102
RTVSPost2010PropOp49
 70
     1
102
RTVSPost2010Prop50
 90
       50
102
RTVSPost2010PropOp50
 70
     1
102
RTVSPost2010Prop51ColorIndex
 90
      256
102
RTVSPost2010Prop51ColorRGB
 90
-16777216
102
RTVSPost2010PropOp51
 70
     0
102
RTVSPost2010Prop52
140
1.0
102
RTVSPost2010PropOp52
 70
     0
102
RTVSPost2010Prop53
 90
        2
102
RTVSPost2010PropOp53
 70
     1
102
RTVSPost2010Prop54
  1
strokes_ogs.tif
102
RTVSPost2010PropOp54
 70
     1
102
RTVSPost2010Prop55
280
     0
102
RTVSPost2010PropOp55
 70
     1
102
RTVSPost2010Prop56
140
1.0
102
RTVSPost2010PropOp56
 70
     1
102
RTVSPost2010Prop57
140
1.0
102
RTVSPost2010PropOp57
 70
     1
  0
XRECORD
  5
D6
102
{ACAD_REACTORS
330
D5
102
}
330
D5
100
AcDbXrecord
280
     1
102
RTVSPropertyOp0
 70
     1
102
RTVSPropertyOp1
 70
     1
102
RTVSPropertyOp2
 70
     1
102
RTVSPropertyOp3
 70
     1
102
RTVSPropertyOp4
 70
     1
102
RTVSPropertyOp5
 70
     1
102
RTVSPropertyOp6
 70
     1
102
RTVSPropertyOp7
 70
     1
102
RTVSPropertyOp8
 70
     1
102
RTVSPropertyOp9
 70
     1
102
RTVSPropertyOp10
 70
     1
102
RTVSPropertyOp11
 70
     1
102
RTVSPropertyOp12
 70
     1
102
RTVSPropertyOp13
 70
     1
102
RTVSPropertyOp14
 70
     1
102
RTVSPropertyOp15
 70
     1
102
RTVSPropertyOp16
 70
     1
102
RTVSPropertyOp17
 70
     1
102
RTVSPropertyOp18
 70
     1
102
RTVSPropertyOp19
 70
     1
102
RTVSPropertyOp20
 70
     1
102
RTVSPropertyOp21
 70
     1
102
RTVSPropertyOp22
 70
     1
102
RTVSPropertyOp23
 70
     1
102
RTVSPropertyOp24
 70
     1
102
RTVSPropertyOp25
 70
     1
102
RTVSPropertyOp26
 70
     1
102
RTVSPropertyOp27
 70
     1
102
RTVSPropertyOp28
 70
     1
102
RTVSPropertyOp29
 70
     1
102
RTVSPropertyOp30
 70
     1
102
RTVSPropertyOp31
 70
     1
102
RTVSPropertyOp32
 70
     1
102
RTVSPropertyOp33
 70
     1
102
RTVSPropertyOp34
 70
     1
102
RTVSPropertyOp35
 70
     1
102
RTVSPropertyOp36
 70
     1
102
RTVSPropertyOp37
 70
     1
102
RTVSPropertyOp38
 70
     1
102
RTVSPropertyOp39
 70
     1
102
RTVSPropertyOp40
 70
     1
102
RTVSPropertyOp41
 70
     1
102
RTVSPropertyOp42
 70
     1
102
RTVSPropertyOp43
 70
     1
102
RTVSPropertyOp44
 70
     1
102
RTVSPropertyOp45
 70
     1
102
RTVSPropertyOp46
 70
     1
102
RTVSPropertyOp47
 70
     1
102
RTVSPropertyOp48
 70
     1
102
RTVSPropertyOp49
 70
     1
102
RTVSPropertyOp50
 70
     1
102
RTVSPropertyOp51
 70
     0
102
RTVSPropertyOp52
 70
     0
102
RTVSPropertyOp53
 70
     1
102
RTVSPropertyOp54
 70
     1
102
RTVSPropertyOp55
 70
     1
102
RTVSPropertyOp56
 70
     1
102
RTVSPropertyOp57
 70
     1
102
RTVSPost2010Prop28
280
     0
102
RTVSPost2010PropOp28
 70
     1
102
RTVSPost2010Prop29
280
     1
102
RTVSPost2010PropOp29
 70
     1
102
RTVSPost2010Prop30
280
     1
102
RTVSPost2010PropOp30
 70
     1
102
RTVSPost2010Prop31
280
     0
102
RTVSPost2010PropOp31
 70
     1
102
RTVSPost2010Prop32
280
     0
102
RTVSPost2010PropOp32
 70
     1
102
RTVSPost2010Prop33
280
     0
102
RTVSPost2010PropOp33
 70
     1
102
RTVSPost2010Prop34
280
     0
102
RTVSPost2010PropOp34
 70
     1
102
RTVSPost2010Prop35
280
     0
102
RTVSPost2010PropOp35
 70
     1
102
RTVSPost2010Prop36
280
     0
102
RTVSPost2010PropOp36
 70
     1
102
RTVSPost2010Prop37
 90
       50
102
RTVSPost2010PropOp37
 70
     1
102
RTVSPost2010Prop38
140
0.0
102
RTVSPost2010PropOp38
 70
     1
102
RTVSPost2010Prop39
140
1.0
102
RTVSPost2010PropOp39
 70
     1
102
RTVSPost2010Prop40
 90
        0
102
RTVSPost2010PropOp40
 70
     1
102
RTVSPost2010Prop41ColorIndex
 90
       18
102
RTVSPost2010Prop41ColorRGB
 90
        0
102
RTVSPost2010PropOp41
 70
     1
102
RTVSPost2010Prop42
 90
       50
102
RTVSPost2010PropOp42
 70
     1
102
RTVSPost2010Prop43
 90
        3
102
RTVSPost2010PropOp43
 70
     1
102
RTVSPost2010Prop44ColorIndex
 90
        5
102
RTVSPost2010Prop44ColorRGB
 90
      255
102
RTVSPost2010PropOp44
 70
     1
102
RTVSPost2010Prop45
280
     0
102
RTVSPost2010PropOp45
 70
     1
102
RTVSPost2010Prop46
 90
       50
102
RTVSPost2010PropOp46
 70
     1
102
RTVSPost2010Prop47
 90
       50
102
RTVSPost2010PropOp47
 70
     1
102
RTVSPost2010Prop48
 90
       50
102
RTVSPost2010PropOp48
 70
     1
102
RTVSPost2010Prop49
280
     0
102
RTVSPost2010PropOp49
 70
     1
102
RTVSPost2010Prop50
 90
       50
102
RTVSPost2010PropOp50
 70
     1
102
RTVSPost2010Prop51ColorIndex
 90
      256
102
RTVSPost2010Prop51ColorRGB
 90
-16777216
102
RTVSPost2010PropOp51
 70
     0
102
RTVSPost2010Prop52
140
1.0
102
RTVSPost2010PropOp52
 70
     0
102
RTVSPost2010Prop53
 90
        2
102
RTVSPost2010PropOp53
 70
     1
102
RTVSPost2010Prop54
  1
strokes_ogs.tif
102
RTVSPost2010PropOp54
 70
     1
102
RTVSPost2010Prop55
280
     0
102
RTVSPost2010PropOp55
 70
     1
102
RTVSPost2010Prop56
140
1.0
102
RTVSPost2010PropOp56
 70
     1
102
RTVSPost2010Prop57
140
1.0
102
RTVSPost2010PropOp57
 70
     1
  0
XRECORD
  5
C6
102
{ACAD_REACTORS
330
C5
102
}
330
C5
100
AcDbXrecord
280
     1
102
RTVSPropertyOp0
 70
     1
102
RTVSPropertyOp1
 70
     1
102
RTVSPropertyOp2
 70
     1
102
RTVSPropertyOp3
 70
     1
102
RTVSPropertyOp4
 70
     1
102
RTVSPropertyOp5
 70
     1
102
RTVSPropertyOp6
 70
     1
102
RTVSPropertyOp7
 70
     1
102
RTVSPropertyOp8
 70
     1
102
RTVSPropertyOp9
 70
     1
102
RTVSPropertyOp10
 70
     1
102
RTVSPropertyOp11
 70
     1
102
RTVSPropertyOp12
 70
     1
102
RTVSPropertyOp13
 70
     1
102
RTVSPropertyOp14
 70
     1
102
RTVSPropertyOp15
 70
     1
102
RTVSPropertyOp16
 70
     1
102
RTVSPropertyOp17
 70
     1
102
RTVSPropertyOp18
 70
     1
102
RTVSPropertyOp19
 70
     1
102
RTVSPropertyOp20
 70
     1
102
RTVSPropertyOp21
 70
     1
102
RTVSPropertyOp22
 70
     1
102
RTVSPropertyOp23
 70
     1
102
RTVSPropertyOp24
 70
     1
102
RTVSPropertyOp25
 70
     1
102
RTVSPropertyOp26
 70
     1
102
RTVSPropertyOp27
 70
     1
102
RTVSPropertyOp28
 70
     1
102
RTVSPropertyOp29
 70
     1
102
RTVSPropertyOp30
 70
     1
102
RTVSPropertyOp31
 70
     1
102
RTVSPropertyOp32
 70
     1
102
RTVSPropertyOp33
 70
     1
102
RTVSPropertyOp34
 70
     1
102
RTVSPropertyOp35
 70
     1
102
RTVSPropertyOp36
 70
     1
102
RTVSPropertyOp37
 70
     1
102
RTVSPropertyOp38
 70
     1
102
RTVSPropertyOp39
 70
     1
102
RTVSPropertyOp40
 70
     1
102
RTVSPropertyOp41
 70
     1
102
RTVSPropertyOp42
 70
     1
102
RTVSPropertyOp43
 70
     1
102
RTVSPropertyOp44
 70
     1
102
RTVSPropertyOp45
 70
     1
102
RTVSPropertyOp46
 70
     1
102
RTVSPropertyOp47
 70
     1
102
RTVSPropertyOp48
 70
     1
102
RTVSPropertyOp49
 70
     1
102
RTVSPropertyOp50
 70
     1
102
RTVSPropertyOp51
 70
     0
102
RTVSPropertyOp52
 70
     0
102
RTVSPropertyOp53
 70
     1
102
RTVSPropertyOp54
 70
     1
102
RTVSPropertyOp55
 70
     1
102
RTVSPropertyOp56
 70
     1
102
RTVSPropertyOp57
 70
     1
102
RTVSPost2010Prop28
280
     0
102
RTVSPost2010PropOp28
 70
     1
102
RTVSPost2010Prop29
280
     1
102
RTVSPost2010PropOp29
 70
     1
102
RTVSPost2010Prop30
280
     1
102
RTVSPost2010PropOp30
 70
     1
102
RTVSPost2010Prop31
280
     0
102
RTVSPost2010PropOp31
 70
     1
102
RTVSPost2010Prop32
280
     0
102
RTVSPost2010PropOp32
 70
     1
102
RTVSPost2010Prop33
280
     0
102
RTVSPost2010PropOp33
 70
     1
102
RTVSPost2010Prop34
280
     0
102
RTVSPost2010PropOp34
 70
     1
102
RTVSPost2010Prop35
280
     0
102
RTVSPost2010PropOp35
 70
     1
102
RTVSPost2010Prop36
280
     0
102
RTVSPost2010PropOp36
 70
     1
102
RTVSPost2010Prop37
 90
       50
102
RTVSPost2010PropOp37
 70
     1
102
RTVSPost2010Prop38
140
0.0
102
RTVSPost2010PropOp38
 70
     1
102
RTVSPost2010Prop39
140
1.0
102
RTVSPost2010PropOp39
 70
     1
102
RTVSPost2010Prop40
 90
        0
102
RTVSPost2010PropOp40
 70
     1
102
RTVSPost2010Prop41ColorIndex
 90
       18
102
RTVSPost2010Prop41ColorRGB
 90
        0
102
RTVSPost2010PropOp41
 70
     1
102
RTVSPost2010Prop42
 90
       50
102
RTVSPost2010PropOp42
 70
     1
102
RTVSPost2010Prop43
 90
        3
102
RTVSPost2010PropOp43
 70
     1
102
RTVSPost2010Prop44ColorIndex
 90
        5
102
RTVSPost2010Prop44ColorRGB
 90
      255
102
RTVSPost2010PropOp44
 70
     1
102
RTVSPost2010Prop45
280
     0
102
RTVSPost2010PropOp45
 70
     1
102
RTVSPost2010Prop46
 90
       50
102
RTVSPost2010PropOp46
 70
     1
102
RTVSPost2010Prop47
 90
       50
102
RTVSPost2010PropOp47
 70
     1
102
RTVSPost2010Prop48
 90
       50
102
RTVSPost2010PropOp48
 70
     1
102
RTVSPost2010Prop49
280
     0
102
RTVSPost2010PropOp49
 70
     1
102
RTVSPost2010Prop50
 90
       50
102
RTVSPost2010PropOp50
 70
     1
102
RTVSPost2010Prop51ColorIndex
 90
      256
102
RTVSPost2010Prop51ColorRGB
 90
-16777216
102
RTVSPost2010PropOp51
 70
     0
102
RTVSPost2010Prop52
140
1.0
102
RTVSPost2010PropOp52
 70
     0
102
RTVSPost2010Prop53
 90
        2
102
RTVSPost2010PropOp53
 70
     1
102
RTVSPost2010Prop54
  1
strokes_ogs.tif
102
RTVSPost2010PropOp54
 70
     1
102
RTVSPost2010Prop55
280
     0
102
RTVSPost2010PropOp55
 70
     1
102
RTVSPost2010Prop56
140
1.0
102
RTVSPost2010PropOp56
 70
     1
102
RTVSPost2010Prop57
140
1.0
102
RTVSPost2010PropOp57
 70
     1
  0
XRECORD
  5
B8
102
{ACAD_REACTORS
330
B7
102
}
330
B7
100
AcDbXrecord
280
     1
102
RTVSPropertyOp0
 70
     1
102
RTVSPropertyOp1
 70
     1
102
RTVSPropertyOp2
 70
     1
102
RTVSPropertyOp3
 70
     1
102
RTVSPropertyOp4
 70
     1
102
RTVSPropertyOp5
 70
     1
102
RTVSPropertyOp6
 70
     1
102
RTVSPropertyOp7
 70
     1
102
RTVSPropertyOp8
 70
     1
102
RTVSPropertyOp9
 70
     1
102
RTVSPropertyOp10
 70
     1
102
RTVSPropertyOp11
 70
     1
102
RTVSPropertyOp12
 70
     1
102
RTVSPropertyOp13
 70
     1
102
RTVSPropertyOp14
 70
     1
102
RTVSPropertyOp15
 70
     1
102
RTVSPropertyOp16
 70
     1
102
RTVSPropertyOp17
 70
     1
102
RTVSPropertyOp18
 70
     1
102
RTVSPropertyOp19
 70
     1
102
RTVSPropertyOp20
 70
     1
102
RTVSPropertyOp21
 70
     1
102
RTVSPropertyOp22
 70
     1
102
RTVSPropertyOp23
 70
     1
102
RTVSPropertyOp24
 70
     1
102
RTVSPropertyOp25
 70
     1
102
RTVSPropertyOp26
 70
     1
102
RTVSPropertyOp27
 70
     1
102
RTVSPropertyOp28
 70
     1
102
RTVSPropertyOp29
 70
     1
102
RTVSPropertyOp30
 70
     1
102
RTVSPropertyOp31
 70
     1
102
RTVSPropertyOp32
 70
     1
102
RTVSPropertyOp33
 70
     1
102
RTVSPropertyOp34
 70
     1
102
RTVSPropertyOp35
 70
     1
102
RTVSPropertyOp36
 70
     1
102
RTVSPropertyOp37
 70
     1
102
RTVSPropertyOp38
 70
     1
102
RTVSPropertyOp39
 70
     1
102
RTVSPropertyOp40
 70
     1
102
RTVSPropertyOp41
 70
     1
102
RTVSPropertyOp42
 70
     1
102
RTVSPropertyOp43
 70
     1
102
RTVSPropertyOp44
 70
     1
102
RTVSPropertyOp45
 70
     1
102
RTVSPropertyOp46
 70
     1
102
RTVSPropertyOp47
 70
     1
102
RTVSPropertyOp48
 70
     1
102
RTVSPropertyOp49
 70
     1
102
RTVSPropertyOp50
 70
     1
102
RTVSPropertyOp51
 70
     0
102
RTVSPropertyOp52
 70
     0
102
RTVSPropertyOp53
 70
     1
102
RTVSPropertyOp54
 70
     1
102
RTVSPropertyOp55
 70
     1
102
RTVSPropertyOp56
 70
     1
102
RTVSPropertyOp57
 70
     1
102
RTVSPost2010Prop28
280
     0
102
RTVSPost2010PropOp28
 70
     1
102
RTVSPost2010Prop29
280
     1
102
RTVSPost2010PropOp29
 70
     1
102
RTVSPost2010Prop30
280
     1
102
RTVSPost2010PropOp30
 70
     1
102
RTVSPost2010Prop31
280
     0
102
RTVSPost2010PropOp31
 70
     1
102
RTVSPost2010Prop32
280
     0
102
RTVSPost2010PropOp32
 70
     1
102
RTVSPost2010Prop33
280
     0
102
RTVSPost2010PropOp33
 70
     1
102
RTVSPost2010Prop34
280
     0
102
RTVSPost2010PropOp34
 70
     1
102
RTVSPost2010Prop35
280
     0
102
RTVSPost2010PropOp35
 70
     1
102
RTVSPost2010Prop36
280
     0
102
RTVSPost2010PropOp36
 70
     1
102
RTVSPost2010Prop37
 90
       50
102
RTVSPost2010PropOp37
 70
     1
102
RTVSPost2010Prop38
140
0.0
102
RTVSPost2010PropOp38
 70
     1
102
RTVSPost2010Prop39
140
1.0
102
RTVSPost2010PropOp39
 70
     1
102
RTVSPost2010Prop40
 90
        0
102
RTVSPost2010PropOp40
 70
     1
102
RTVSPost2010Prop41ColorIndex
 90
       18
102
RTVSPost2010Prop41ColorRGB
 90
        0
102
RTVSPost2010PropOp41
 70
     1
102
RTVSPost2010Prop42
 90
       50
102
RTVSPost2010PropOp42
 70
     1
102
RTVSPost2010Prop43
 90
        3
102
RTVSPost2010PropOp43
 70
     1
102
RTVSPost2010Prop44ColorIndex
 90
        5
102
RTVSPost2010Prop44ColorRGB
 90
      255
102
RTVSPost2010PropOp44
 70
     1
102
RTVSPost2010Prop45
280
     0
102
RTVSPost2010PropOp45
 70
     1
102
RTVSPost2010Prop46
 90
       50
102
RTVSPost2010PropOp46
 70
     1
102
RTVSPost2010Prop47
 90
       50
102
RTVSPost2010PropOp47
 70
     1
102
RTVSPost2010Prop48
 90
       50
102
RTVSPost2010PropOp48
 70
     1
102
RTVSPost2010Prop49
280
     0
102
RTVSPost2010PropOp49
 70
     1
102
RTVSPost2010Prop50
 90
       50
102
RTVSPost2010PropOp50
 70
     1
102
RTVSPost2010Prop51ColorIndex
 90
      256
102
RTVSPost2010Prop51ColorRGB
 90
-16777216
102
RTVSPost2010PropOp51
 70
     0
102
RTVSPost2010Prop52
140
1.0
102
RTVSPost2010PropOp52
 70
     0
102
RTVSPost2010Prop53
 90
        2
102
RTVSPost2010PropOp53
 70
     1
102
RTVSPost2010Prop54
  1
strokes_ogs.tif
102
RTVSPost2010PropOp54
 70
     1
102
RTVSPost2010Prop55
280
     0
102
RTVSPost2010PropOp55
 70
     1
102
RTVSPost2010Prop56
140
1.0
102
RTVSPost2010PropOp56
 70
     1
102
RTVSPost2010Prop57
140
1.0
102
RTVSPost2010PropOp57
 70
     1
  0
XRECORD
  5
D8
102
{ACAD_REACTORS
330
D7
102
}
330
D7
100
AcDbXrecord
280
     1
102
RTVSPropertyOp0
 70
     1
102
RTVSPropertyOp1
 70
     1
102
RTVSPropertyOp2
 70
     1
102
RTVSPropertyOp3
 70
     1
102
RTVSPropertyOp4
 70
     1
102
RTVSPropertyOp5
 70
     1
102
RTVSPropertyOp6
 70
     1
102
RTVSPropertyOp7
 70
     1
102
RTVSPropertyOp8
 70
     1
102
RTVSPropertyOp9
 70
     1
102
RTVSPropertyOp10
 70
     1
102
RTVSPropertyOp11
 70
     1
102
RTVSPropertyOp12
 70
     1
102
RTVSPropertyOp13
 70
     1
102
RTVSPropertyOp14
 70
     1
102
RTVSPropertyOp15
 70
     1
102
RTVSPropertyOp16
 70
     1
102
RTVSPropertyOp17
 70
     1
102
RTVSPropertyOp18
 70
     1
102
RTVSPropertyOp19
 70
     1
102
RTVSPropertyOp20
 70
     1
102
RTVSPropertyOp21
 70
     1
102
RTVSPropertyOp22
 70
     1
102
RTVSPropertyOp23
 70
     1
102
RTVSPropertyOp24
 70
     1
102
RTVSPropertyOp25
 70
     1
102
RTVSPropertyOp26
 70
     1
102
RTVSPropertyOp27
 70
     1
102
RTVSPropertyOp28
 70
     1
102
RTVSPropertyOp29
 70
     1
102
RTVSPropertyOp30
 70
     1
102
RTVSPropertyOp31
 70
     1
102
RTVSPropertyOp32
 70
     1
102
RTVSPropertyOp33
 70
     1
102
RTVSPropertyOp34
 70
     1
102
RTVSPropertyOp35
 70
     1
102
RTVSPropertyOp36
 70
     1
102
RTVSPropertyOp37
 70
     1
102
RTVSPropertyOp38
 70
     1
102
RTVSPropertyOp39
 70
     1
102
RTVSPropertyOp40
 70
     1
102
RTVSPropertyOp41
 70
     1
102
RTVSPropertyOp42
 70
     1
102
RTVSPropertyOp43
 70
     1
102
RTVSPropertyOp44
 70
     1
102
RTVSPropertyOp45
 70
     1
102
RTVSPropertyOp46
 70
     1
102
RTVSPropertyOp47
 70
     1
102
RTVSPropertyOp48
 70
     1
102
RTVSPropertyOp49
 70
     1
102
RTVSPropertyOp50
 70
     1
102
RTVSPropertyOp51
 70
     0
102
RTVSPropertyOp52
 70
     0
102
RTVSPropertyOp53
 70
     1
102
RTVSPropertyOp54
 70
     1
102
RTVSPropertyOp55
 70
     1
102
RTVSPropertyOp56
 70
     1
102
RTVSPropertyOp57
 70
     1
102
RTVSPost2010Prop28
280
     0
102
RTVSPost2010PropOp28
 70
     1
102
RTVSPost2010Prop29
280
     1
102
RTVSPost2010PropOp29
 70
     1
102
RTVSPost2010Prop30
280
     1
102
RTVSPost2010PropOp30
 70
     1
102
RTVSPost2010Prop31
280
     0
102
RTVSPost2010PropOp31
 70
     1
102
RTVSPost2010Prop32
280
     0
102
RTVSPost2010PropOp32
 70
     1
102
RTVSPost2010Prop33
280
     0
102
RTVSPost2010PropOp33
 70
     1
102
RTVSPost2010Prop34
280
     0
102
RTVSPost2010PropOp34
 70
     1
102
RTVSPost2010Prop35
280
     0
102
RTVSPost2010PropOp35
 70
     1
102
RTVSPost2010Prop36
280
     0
102
RTVSPost2010PropOp36
 70
     1
102
RTVSPost2010Prop37
 90
       50
102
RTVSPost2010PropOp37
 70
     1
102
RTVSPost2010Prop38
140
0.0
102
RTVSPost2010PropOp38
 70
     1
102
RTVSPost2010Prop39
140
1.0
102
RTVSPost2010PropOp39
 70
     1
102
RTVSPost2010Prop40
 90
        0
102
RTVSPost2010PropOp40
 70
     1
102
RTVSPost2010Prop41ColorIndex
 90
       18
102
RTVSPost2010Prop41ColorRGB
 90
        0
102
RTVSPost2010PropOp41
 70
     1
102
RTVSPost2010Prop42
 90
       50
102
RTVSPost2010PropOp42
 70
     1
102
RTVSPost2010Prop43
 90
        3
102
RTVSPost2010PropOp43
 70
     1
102
RTVSPost2010Prop44ColorIndex
 90
        5
102
RTVSPost2010Prop44ColorRGB
 90
      255
102
RTVSPost2010PropOp44
 70
     1
102
RTVSPost2010Prop45
280
     0
102
RTVSPost2010PropOp45
 70
     1
102
RTVSPost2010Prop46
 90
       50
102
RTVSPost2010PropOp46
 70
     1
102
RTVSPost2010Prop47
 90
       50
102
RTVSPost2010PropOp47
 70
     1
102
RTVSPost2010Prop48
 90
       50
102
RTVSPost2010PropOp48
 70
     1
102
RTVSPost2010Prop49
280
     0
102
RTVSPost2010PropOp49
 70
     1
102
RTVSPost2010Prop50
 90
       50
102
RTVSPost2010PropOp50
 70
     1
102
RTVSPost2010Prop51ColorIndex
 90
      256
102
RTVSPost2010Prop51ColorRGB
 90
-16777216
102
RTVSPost2010PropOp51
 70
     0
102
RTVSPost2010Prop52
140
1.0
102
RTVSPost2010PropOp52
 70
     0
102
RTVSPost2010Prop53
 90
        2
102
RTVSPost2010PropOp53
 70
     1
102
RTVSPost2010Prop54
  1
strokes_ogs.tif
102
RTVSPost2010PropOp54
 70
     1
102
RTVSPost2010Prop55
280
     0
102
RTVSPost2010PropOp55
 70
     1
102
RTVSPost2010Prop56
140
1.0
102
RTVSPost2010PropOp56
 70
     1
102
RTVSPost2010Prop57
140
1.0
102
RTVSPost2010PropOp57
 70
     1
  0
ENDSEC
  0
EOF
